Oops, an error
Loading. Please wait.

Satisfied Bass Tab

504 views 1 this week
no commentswrite comment
1 2 3 4 5
please rate
add to favorites
launch autoscroll
font size
0
reset
guitar tuner
Autoscroll
slow
fast
+/-
esc
set tempo
stop
Help us to improve Ultimate-Guitar.com Take our survey!
×
Author
Difficulty
intermediate
Satisfied                                                         
Prince
3121


pdf et Gp5  http://junk1000.free.free.fr/menutabs.html

                      
Signature 3/4

	               Couplet1 (0:02 - 0:29)
G||----------------||-----|-----|-----|-----|-----|-----|-----|-----|-----|
D||------------5---||-----|-----|-----|-----|-----|-----|-----|-----|-----|
A||--5----7--------||-----|-----|-----|-----|-----|-----|-----|--x--|--3--|
E||----------------||--3--|--3--|--3--|-----|--3--|-----|--3--|-----|-----|


G||-----|-----|----|-----|-----|-----|------|-----|-----|
D||-----|-----|----|-----|-----|-----|------|-----|-----|
A||-----|--3--|-x--|--4--|-----|--4--|------|-----|--2--|
E||-----|-----|----|-----|-----|-----|-0--2-|--3--|-----|


G||-----|-----|----|-----|-----|-----|
D||-----|-----|----|-----|-----|-----|
A||--5--|--7--|----|-----|--5--|-----|
E||-----|-----|--5-|-x-x-|-----|-----|



   Refrain (0:30 - 0:40)
G||-----|-----|----|-----|-----|-----|------|-----|
D||-----|-----|----|-----|-----|-----|------|-----|
A||-----|-----|----|--5--slide-|--3--slideL---13--|
E||--5--|--7--|--8-|-----|-----|-----|-3----|-0--2|


   Couplet 2 (0:41 - 1:10)
G||-----|-----|-----|-----|-----|-----|-----|-----|
D||-----|-----|-----|-----|-----|-----|-----|-----|
A||-----|-----|-----|-----|-----|-----|-----|--/8-|
E||--3--|-----|--3--|-0-2-|--3--|-----|--3--|-----|


G||-----|-----|-----|-----|-----|-----|-----|-----|
D||-----|-----|-----|-----|-----|-----|--5--|-----|
A||--/3-|-1-1-|-----|-----|--4--|--7--|-----|-----|
E||-----|-----|-5-5-|-3xx-|-----|-----|-----|-----|


G||-----|-----|-----|-----|-----|-----|-----|-----|
D||-----|----2|--5--|-----|-----|-----|-----|-----|
A||-----|-2-5-|-----|-2-x-|-----|-----|--5--|-----|
E||--3--|-----|-----|-----|--5--|-x-x-|-----|-----|


   Refrain (1:11 - 1:16)
G||-----|-----|-----|-----|-----|-----|-----|-----|
D||-----|--2--|--5--|--7--|-----|-----|-----|-----|
A||--3--|-----|-----|-----|--3--|--1--|-----|-----|
E||-----|-----|-----|-----|-----|-----|--3--|-----|

 
   Bridge (1:17 - 2:00)
G||-----|-----|-----|-----|-----|-----|-----|
D||-----|-----|-----|-----|-----|-----|-----|
A||-----|-----|-----|-----|-----|-----|-----|
E||--0--|-3-3-|--6--|x-x-x|--0--|-3-3-|--6--|


G||-----|-----|-----|-----|-----|-----|-----|
D||-----|-----|-----|-----|-----|-----|-----|
A||-----|--xs-|--8--|-xxx-|-----|-----|-----|
E||--0--|-3---|-----|-----|--5--|-x-x-|--10\|


G||-----|-----|-----|-----|-----|-----|-----|
D||-----|-----|-----|-----|-----|-----|-----|
A||-----|-----|-----|-----|-----|-----|-----|
E||--3--|-----|-----|-----|--3--|--3--|--3--|


G||-----|-----|-----|-----|-----|-----|-----|--6--|
D||-----|-----|-2-2-|-5-5-|-7-x-|-----|--5--|-----|
A||--2--|--3--|-----|-----|-----|--4--|-----|4----|
E||--3--|-----|-----|-----|-----|-----|-----|-----|


G||-----|-----|-----|-----|-----|-----|-----|-----|
D||--5--|-----|----2|--5--|-----|-----|-----|-----|
A||-----|-----|2-5--|-----|-----|-----|--4--|--5--|
E||-----|--3--|-----|-----|-----|--5--|-----|-----|


   Refrain (2:01 - 2:14)
G||-----|-----|-----|-----|-----|-----|-----|-----|-----|
D||-----|-----|-----|-----|-----|-----|-----|-----|-----|
A||--7\-|--3--|--1--|-----|-----|--8--|--7--|-----|-----|
E||-----|-----|-----|--5--|-x--x|-----|-----|--3--|-----|


   Couplet 3 (2:15 - 2:
G||-----|-----|-----|-----|-----|-----|-----|-----|
D||-----|-----|-----|-----|-----|-----|-----|-----|
A||-----|-----|-----|-----|-----|-----|-----|-----|
E||--0--|--3--|--6--|-x-x-|--0--|--3-slide-13-----|


G||-----|-----|-----|-----|-----|-----|-----|-----|-----|
D||-----|-----|-----|-----|-----|-----|-----|-----|-----|
A||-----|-----|-----|-----|--5--|-----|-----|-----|-----|
E||--5--|-----|--5--|--5--|-----|-----|-----|-----|---6-|


Suggest correction
Give kudos to tab author, rate the tab!
1 2 3 4 5
comments
print report bad tab
guest
You may want to rate the tab now too:
select rating
Wanna post a correction for this tab? Suggest correction