Oops, an error
Loading. Please wait.

Shes Always In My Hair bass

by Prince
443 views 3 this week
no commentswrite comment
1 2 3 4 5
x 3
add to favorites
×
Save as Personal and add changes to this tab that will be seen only by you. Learn more ›
×
You can save this tab as Personal to edit and correct it or add notes. All changes will be seen only by you. Learn more »
launch autoscroll
font size
0
reset
guitar tuner
edit
Autoscroll
slow
fast
+/-
esc
set tempo
stop
Author
Difficulty
                              She's Always In My Hair
                                      Prince

Bass                                                              Prince 

As played by Prince

In 2/2

Intro
                                                              S
|-----------------|-----------------|-----------------|-----------------|
|-----------------|-----------------|-----------------|-----------------|
|-----------------|-----------------|-----------------|-----------------|
|-----------------|-----------------|-----------------|-------3\--0/--3-|
  W                 W                 W                 Q.    Q   Q   E

  S           S     S     S       S   S           S     S
|-----------------|-----------------|-----------------|-----------------|
|-----------------|-----------------|-----------------|-----------------|
|-----------------|-----------------|-3-----------3---|-5---------x-5-7-|
|-0-----------0---|-0-----x-------x-|-----------------|-----------------|
  H       Q   Q     Q   E E Q   E E   H       Q   Q     Q   Q.    E E E

  S           S     S                 S           S     S   
|-----------------|---------9-------|-----------------|-----------------|
|-----------------|-----------------|-----------------|-----9-------7/9-|
|-----------------|-----7-7---------|-3-----------3---|-5-------5-5-----|
|-0-----------0---|-0---------------|-----------------|-----------------|
  H       Q   Q     Q   E E H         H       Q   Q     Q   Q   E E E E

  P           S     S   S P     P S   S           S     S     S     S S
|-----------------|-----------------|-----------------|-----------------|
|-----------------|-------5-----2---|-----------------|-----------------|
|-7---------------|-----------------|-3-----------3---|-5-----x-----x-x-|
|-------------0---|-0---0---------0-|-----------------|-----------------|
  H       Q   Q     Q   E Q   E E E   H       Q   Q     Q     E     E E

  S           S     S                 S           S     S           S S
|-----------------|-----------------|-----------------|-----------------|
|-----------------|-----------------|-----------------|-----------------|
|/7---------------|-----5---7-------|-3-----------3---|-5-----------x-x-|
|-------------0---|-0-----------0---|-----------------|-----------------|
  H       Q   Q     Q   Q   Q   Q     H       Q   Q     Q     Q     E E

Verse 1

  S           S     S           S S   S           S     S     S     S S
|-----------------|-----------------|-----------------|-----------------|
|-----------------|-----------------|-----------------|-----------------|
|-----------------|-----------------|-3-----------3---|-5-----x-----x-x-|
|-0-----------0---|-0-----------x-x-|-----------------|-----------------|
  H       Q   Q     Q   Q   Q   E E   H       Q   Q     Q     Q     E E

  P           S     S   S   S   S     S           S     S     S S S S S
|-----------------|-----------------|-----------------|-----------------|
|/2---------------|-----x---x---x---|-----------------|-----------------|
|-----------------|-----------------|-3-----------3---|-5-----x-x-x-x-x-|
|-------------0---|-0---------------|-----------------|-----------------|
  H       Q   Q     Q   Q   Q   Q     H       Q   Q     Q   E E E E E E

  S       P   S S   S       S         S           S     S     S       S
|-----------------|-----------------|-----------------|-----------------|
|---------2-------|-----------------|-----------------|-----------------|
|-----------------|---------7-------|-3-----------3---|-5----/12--------|
|-0-----------x-x-|-3\--------------|-----------------|---------------x-|
  H       Q   Q     Q   Q   Q   Q     H       Q   Q     Q     Q     E E

Pre-Chorus 1

|-----------------|-----------------|-----------------|-----------------|
|-----------------|-----------------|-----------------|-----------------|
|-----------------|-----------------|-3---------------|-5---------------|
|-5---------------|(5)------------x-|-----------------|-----------------|
  W                 H.          E E   W                 W

|-----------------|-----------------|-----------------|-----------------|
|-----------------|-----------------|-----------------|-----------------|
|-----------------|-----------------|-3-----------3---|/5---------------|
|-0-----------0---|-0-----------x---|-----------------|-----------------|
  H       Q   Q     H   Q   Q   Q     H.          Q     W

Chorus 1

  S           S     S       S     S   S           S     S       S   S S
|-----------------|-----------------|-----------------|-----------------|
|-----------------|---------5-----5-|-----------------|-----------------|
|-----------------|-----------------|-----------------|-----------------|
|-3-----------3---|-3---------------|-5-----------5---|-5-------5---x-x-|
  Q   Q   Q   Q     Q   Q   Q.    E   H       Q   Q     Q   Q   Q   E E

|-----------------|-----------------|
|-----------------|-----------------|
|-----------------|-----------------|
|-0---------------|(0)--------------|
  W                 W

Verse 2

  S P S S     S     S                 S           S     S           S
|-----------------|-----------------|-----------------|-----------------|
|---2-------------|-----------------|-----------------|-----------------|
|-----------------|-----------------|/3-----------3---|-5-----------5---|
|-0---0-0-----0---|-0---------------|-----------------|-----------------|
  E E E E Q   Q     Q   Q   H         H       Q   Q     Q   H       Q

  P           S     S           S S   S           S     S   S S S     S
|-----------------|-----------------|-----------------|-----------------|
|-----------------|-----------------|-----------------|-----------------|
|/7---------------|-----------------|-3-----------3---|-5---x-x-12\---x-|
|-------------0---|-0-----------x-x-|-----------------|-----------------|
  H       Q   Q     Q   Q   Q   E E   H       Q   Q     Q   E E Q.    E

  S           S     S   S P     S     S           S     S         S
|-----------------|-----------------|-----------------|-----------------|
|-----------------|-------5---------|-----------------|-----------------|
|/7---------------|-----------------|-3-----------3---|-5---------12\---|
|-------------0---|-0---x-------0---|-----------------|-----------------|
  H       Q   Q     Q   E Q.    Q     H       Q   Q     Q   Q   E Q.

Pre-Chorus 2

  S       P         S P S   P         S       P   S     S
|---------9-------|---9-----9-------|---------5-------|-----------------|
|-----------------|-----------------|-----------------|-----------------|
|-0---------------|-0---0-----0-7-0-|-3-----------3---|-5---------------|
|-----------------|-----------------|-----------------|-----------------|
  H       Q   Q     E E Q   E E E E   H       Q   Q     W

  S           S     S     S P   S S   S                 S 
|-----------------|-----------------|-----------------|-----------------|
|-----------------|---------x-------|-----------------|-----------------|
|-----------------|-----------------|-3---------------|/5---------------|
|-0-----------0---|-0-----0-----x-x-|-----------------|-----------------|
  H       Q   Q     Q   E E E E E E   W                 W

Chorus 2
                                                                    P
|-----------------|-----------------|-----------------|-----------------|
|-----------------|---------x-------|-----------------|-------------x---|
|-----------------|-----------------|-----------------|-----------------|
|-3-----------3---|-3-----x-------x-|-5-----------5---|-5---------------|
  Q   Q   Q   Q     Q   E E E Q   E   H       Q   Q     Q   Q   Q   Q 

|-----------------|-----------------|
|-2---------------|(2)--------------|
|-----------------|-----------------|
|-----------------|-----------------|
  W                 W

Verse 3

  S   P                 S     S S S   S           S     S           S
|-----------------|-----------------|-----------------|-----------------|
|-----------------|-----------------|-----------------|-----------------|
|-----7-----------|-----------------|-3-----------3---|-5-----------x---|
|-0---------------|-----5-----3-5-5-|-----------------|-----------------|
  Q   Q   H         Q   Q   E E E E   H       Q   Q     H       Q   Q

  S   S       S     S           S     S           S     S           P   
|-----------------|-----------------|-----------------|-------------5/7-|
|-----------------|-----------------|-----------------|-----------7-----|
|-5/7-7-----------|-------------x---|-3-----------3---|-5-----x-5-------|
|-------------0---|-0---------------|-----------------|-----------------|

  P   S                     S S   S   S           S     S             S
|-4/6-------------|-----------------|-----------------|-----------------|
|-----------------|-----------------|-----------------|-----------------|
|-----------------|-----------------|-3-----------3---|-5-------------x-|
|-----0-----------|---------x-x---x-|-----------------|-----------------|
  E E E             H       E Q   E   H       Q   Q     H        Q.   E

Pre-Chorus 3

|-----------------|-----------------|-----------------|---------x-------|
|-----------------|-----------------|-----------------|-----------------|
|-----------------|---------7---7-7-|-3-----------x-x-|/5---5-----------|
|/5-----------5---|-5---------------|-----------------|-------------5\--|
  H       Q   Q     Q   Q   Q   E E   H       Q   E E   Q   Q   Q   Q

|-----------------|-----------------|-----------------|-----------------|
|-----------------|-----------------|-----------------|-----------------|
|-----------------|-----------------|-3-----------x-x-|/5---5-------5---|
|-0-----------0---|-0-----------x-x-|-----------------|-----------------|
  H       Q   Q     Q   Q   Q   E E   H       Q   E E   Q   H       Q

Chorus 3
 
|-----------------|-----------------|-----------------|-----------------|
|-----------------|-----------------|-----------------|-----------------|
|-----------------|-----------------|-----------------|---------10\-----|
|-3---------------|-----------------|-----------------|-----------------|
  Q   Q   H         W                 W                 H       H

                                                        S S S S S S S S
|-----------------|-----------------|-----------------|-----------------|
|-----------------|-----------------|-----------------|-----------------|
|-----------------|-----------------|-----------------|-----------------|
|-0---------------|-0-------0-------|-0---0---0---0---|-0-0-0-0-0-0-0-0-|
  W                 H       H         Q   Q   Q   Q     E E E E E E E E

Solo

  S       P     S   S S S   S S S     S           S     S         P P
|---------5-------|-----------------|-----------------|-------------7\--|
|---------------7-|-7-9-5-------5---|-----------------|-----------x-----|
|-----------------|---------2-------|-3-----------3---|-5---------------|
|-0---------------|-----------0-----|-----------------|-----------------|
  Q   Q   Q   E E   E E Q   E E Q     H       Q   Q     Q   Q.    E Q

  S           S     S                 S           S     S
|-----------------|-----------------|-----------------|-----x---5---5/7-|
|-----------------|-----------------|-----------------|-----------------|
|-5/7-------------|-----------------|-3-----------3---|-5---------------|
|-------------0---|-0---------------|-----------------|-----------------|
  E Q.    Q   Q     Q   H.            H       Q   Q     Q   Q   Q   E E

  S           S     S       P         S           S     S
|-----------------|-----------------|-----------------|-----------12----|
|-----------------|---------7/5-----|-----------------|-------------12--|
|-7---------------|-----------------|-3-----------3---|-5-------------12|
|-------------0---|-0---------------|-----------------|-----------------|
  H       Q   Q     Q   Q   E E Q     H       Q   Q     Q   Q   E E E E

  S       S         S       P   P
|-----------------|---------11--9---|-----14---12-9-7-|-9---9---9-7-----|
|-----------------|-----------------|-----------------|-------------9-7-|
|-----------------|-----------------|-----------------|-----------------|
|-0-------0-------|-0---------------|-----------------|-----------------|
  Q   Q   H         H       Q   Q     Q   Q   E E E E   Q   Q   E E E E


|-----------------|-----------------|-12------14------|-11--------------|
|-7-----------7---|-7---------------|-14----------14--|-12--------------|
|-----------------|-----------------|-----------------|-----------------|
|-----------------|-----------------|-----------------|-----------------|
  H.          Q     H       H         H       Q   Q     Q   Q   H

Verse 4

  S           S     S       S   S S   S           S     S       S
|-----------------|-----------------|-----------------|-----------------|
|-----------------|-----------------|-----------------|-----------------|
|-----------------|-----------------|-3-----------3---|-3/5-------------|
|-0-----------0---|-0-------x---x-x-|-----------------|---------x\------|
  H       Q   Q     Q   Q   E E E E   H       Q   Q     E E Q   Q   Q
 
  S                 S                 S           S     S       S
|-----------------|-----------------|-----------------|-----------------|
|-----------------|-----------------|-----------------|-----------------|
|-5/7-------------|-----------------|/3-----------3---|-3/5-------------|
|-----------------|-0---------------|-----------------|---------x\------|
  E E Q   H         Q   Q   H         H       Q   Q     E E Q   Q   Q

  S   P       S S   S S S S     S S   S           S S   S       P   S
|-----x-----------|-----------------|-----------------|---------x-------|
|-------------x-x-|-----------------|-----------------|-----------------|
|-5/7-------------|-5-7-7-----------|-3-----------x-x-|-3/5---------5---|
|-----------------|-------0-----x-x-|-----------------|-----------------|
  E E Q   Q   E E   E E E Q   E E E   H       Q   E E   E Q.    Q   Q

Pre-Chorus 4

  S           S     S   S   S         S           S     S       P   S
|-----------------|-----------------|-----------------|---------x-------|
|-----------------|-----------------|-----------------|-----------------|
|-----------------|-----------------|-3-----------3---|-5-----------5---|
|-5-----------5---|-5---0---5-------|-----------------|-----------------|
  H       Q   Q     Q   Q   Q   Q     H       Q   Q     H       Q   Q

  S   S       S     S     S S P       S           S     S S     S S S S
|-----------------|-----------9-----|-----------------|-----------------|
|-----------------|-----------------|-----------------|-----------------|
|-----------------|-------5/7-------|-3-----------3---|-3/5-----5-5-5-5-|
|-0---0-------0---|-0---------------|-----------------|-----------------|
  Q   H       Q     Q.    E E E Q     H       Q   Q     E E Q   E.S E E


Chorus 4

  S P     S         S P     S P       S P               S   P   P   S S
|-----------------|---9-------7-----|---5-------------|-----7---9-------|
|---5-------------|-----------------|-----------------|-----------------|
|-----------------|/7------/5/------|/3---------------|-5-----------x-x-|
|/3-------3\------|-----------------|-----------------|-----------------|
  E E Q   Q   Q     E E Q   E E Q     E E Q   H         Q   Q   Q   E E

  S           S S   S S         S S   S       S   S     S       S
|-----------------|-----------------|-----------------|-----------------|
|-----------------|-----------------|-----------------|-----------------|
|-----------------|-----------------|-7-------7---8---|-7-------5\------|
|-0-----------x-x-|-0-0---------x-x-|-----------------|-----------------|
  H.          E E   E Q.    Q   E E   Q   Q   Q   Q     Q   Q   Q   Q


Outro

  S             S       S S           S                 S S     P   S S
|-----------------|-----------------|-----------------|---------9-------|
|-----------------|-----------------|-----------------|-----------------|
|-----------------|-----------------|-3---------------|-3/5---------x-x-|
|-0-------------0-|-----0-0---------|-----------------|-----------------|
  Q   H       E E   Q   E E H         H       H         E E Q   Q   E E

  S S S                 S S           S           S     S S S   S
|-----------------|-----------------|-----------------|-----------------|
|-----------------|-----------------|-----------------|-----------------|
|-5/7-------------|-----------------|-3-----------3---|-5-5-5---5-------|
|-----0-----------|-----0-0---------|-----------------|-----------------|
  E E E E H         Q   E E H         H       Q   Q     E E Q   H

  To fade...
|-9-9\8-8\7-7\5-5\|-4-4-------------||
|-----------------|-----------------||
|-----------------|-----------------||
|-----------------|-----------------||
  E E E E E E E E   E E



Key to rhythm notations:

W - Whole Note/Semi-Brieve
H - Half Note/Minim
Q - Quarter Note/Crotchet       Q. - Dotted Quarter Note
E - Eight Note/Quaver           E. - Dotted Eight Note
S - Sixteenth Note/Semi-Quaver  S. - Dotted Sixteenth Note
Suggest correction
Creating personal tab
Creating personal tab
You can edit any tab online and save it as your Personal.

You can edit, replace or remove any tab part or add personal notes – all changes will be seen only by you.

Personal tabs can be accessed anytime from any device, even offline.
Learn more »
Give kudos to tab author, rate the tab!
1 2 3 4 5
comments
print report bad tab
guest
You may want to rate the tab now too:
select rating
Wanna post a correction for this tab? Suggest correction