Oops, an error
Loading. Please wait.

Space Bass Tab

7 views 1 this week
no commentswrite comment
1 2 3 4 5
2 more votes to show rating
add to favorites
launch autoscroll
font size
0
reset
guitar tuner
Autoscroll
slow
fast
+/-
esc
set tempo
stop
Help us to improve Ultimate-Guitar.com Take our survey!
×
Author
Difficulty
intermediate
About this tab version
As recorded with rhythm notation. Was this info helpful? Yes No
[Intro] 
G|---------------------|--------------------|--------------------|---------------------|
D|o--------------------|--------------------|--------------------|--------------------o|
A|o-3------3-------3---|-3------3-------3---|-3------3-------3---|-3------3-------3---o|
E|----5------5-3-3---5-|---5------5-3-3---5-|---5------5-3-3---5-|---5------5-3-3---5--|
     E E E. E E E S S S   E E E. E E E S S S   E E E. E E E S S S   E E E. E E E S S S 

G|--------------------|--------------------|--------------------|----------------|
D|--------------------|--------------------|--------------------|----------------|
A|-3------3-------3---|-3------3-------3---|-3------3-------3---|-3------3-------|
E|---5------5-3-3---5-|---5------5-3-3---5-|---5------5-3-3---5-|---5------5-3---|
   E E E. E E E S S S   E E E. E E E S S S   E E E. E E E S S S   E E E. E E E E.

[Verse 1]
                                                                                      x3
G|---------------------|--------------------|--------------------|---------------------|
D|o--------------------|--------------------|--------------------|--------------------o|
A|o-3------3-------3---|-3------3-------3---|-3------3-------3---|-3------3-------3---o|
E|----5------5-3-3---5-|---5------5-3-3---5-|---5------5-3-3---5-|---5------5-3-3---5--|
     E E E. E E E S S S   E E E. E E E S S S   E E E. E E E S S S   E E E. E E E S S S 

G|--------------------|--------------------|--------------------|----------------|
D|--------------------|--------------------|--------------------|----------------|
A|-3------3-------3---|-3------3-------3---|-3------3-------3---|-3------3-----3-|
E|---5------5-3-3---5-|---5------5-3-3---5-|---5------5-3-3---5-|---5------5-3---|
   E E E. E E E S S S   E E E. E E E S S S   E E E. E E E S S S   E E E. E E E E.

[Pre-Chorus 1]
G|---------------------|--------------------|--------------------|---------------------|
D|o--------------------|--------------------|--------------------|--------------------o|
A|o-3------3-------3---|-3------3-------3---|-3------3-------3---|-3------3-------3---o|
E|----5------5-3-3---5-|---5------5-3-3---5-|---5------5-3-3---5-|---5------5-3-3---5--|
     E E E. E E E S S S   E E E. E E E S S S   E E E. E E E S S S   E E E. E E E S S S 

[Chorus 1]
G|---------------------|--------------------|--------------------|---------------------|
D|o--------------------|--------------------|--------------------|--------------------o|
A|o-3------3-------3---|-3------3-------3---|-3------3-------3---|-3------3-------3---o|
E|----5------5-3-3---5-|---5------5-3-3---5-|---5------5-3-3---5-|---5------5-3-3---5--|
     E E E. E E E S S S   E E E. E E E S S S   E E E. E E E S S S   E E E. E E E S S S 

[Verse 2]
                                                                                      x3
G|---------------------|--------------------|--------------------|---------------------|
D|o--------------------|--------------------|--------------------|--------------------o|
A|o-3------3-------3---|-3------3-------3---|-3------3-------3---|-3------3-------3---o|
E|----5------5-3-3---5-|---5------5-3-3---5-|---5------5-3-3---5-|---5------5-3-3---5--|
     E E E. E E E S S S   E E E. E E E S S S   E E E. E E E S S S   E E E. E E E S S S 

G|--------------------|--------------------|--------------------|----------------|
D|--------------------|--------------------|--------------------|----------------|
A|-3------3-------3---|-3------3-------3---|-3------3-------3---|-3------3-----3-|
E|---5------5-3-3---5-|---5------5-3-3---5-|---5------5-3-3---5-|---5------5-3---|
   E E E. E E E S S S   E E E. E E E S S S   E E E. E E E S S S   E E E. E E E E.

[Pre-Chorus 2]
G|---------------------|--------------------|--------------------|---------------------|
D|o--------------------|--------------------|--------------------|--------------------o|
A|o-3------3-------3---|-3------3-------3---|-3------3-------3---|-3------3-------3---o|
E|----5------5-3-3---5-|---5------5-3-3---5-|---5------5-3-3---5-|---5------5-3-3---5--|
     E E E. E E E S S S   E E E. E E E S S S   E E E. E E E S S S   E E E. E E E S S S 

[Chorus 2]
G|---------------------|--------------------|--------------------|---------------------|
D|o--------------------|--------------------|--------------------|--------------------o|
A|o-3------3-------3---|-3------3-------3---|-3------3-------3---|-3------3-------3---o|
E|----5------5-3-3---5-|---5------5-3-3---5-|---5------5-3-3---5-|---5------5-3-3---5--|
     E E E. E E E S S S   E E E. E E E S S S   E E E. E E E S S S   E E E. E E E S S S

[Break]
G|----------------|--------------|
D|----------------|--- 3 Bars ---|
A|-3--------------|---  Rest  ---|
E|----------------|--------------|
   Q

[Synth Solo]
G|---------------------|--------------------|--------------------|---------------------|
D|o--------------------|--------------------|--------------------|--------------------o|
A|o-3------3-------3---|-3------3-------3---|-3------3-------3---|-3------3-------3---o|
E|----5------5-3-3---5-|---5------5-3-3---5-|---5------5-3-3---5-|---5------5-3-3---5--|
     E E E. E E E S S S   E E E. E E E S S S   E E E. E E E S S S   E E E. E E E S S S

[Outro]
G|----------------|
D|----------------|
A|-3--------------|
E|----------------|
   Q
Suggest correction
Give kudos to tab author, rate the tab!
1 2 3 4 5
comments
print report bad tab
guest
You may want to rate the tab now too:
select rating
Wanna post a correction for this tab? Suggest correction