Oops, an error
Loading. Please wait.

Uptown bass

version 2
version 2

Whole song

by Prince
490 views 3 this week
no commentswrite comment
1 2 3 4 5
x 5
add to favorites
×
Save as Personal and add changes to this tab that will be seen only by you. Learn more ›
×
You can save this tab as Personal to edit and correct it or add notes. All changes will be seen only by you. Learn more »
launch autoscroll
font size
0
reset
guitar tuner
edit
Autoscroll
slow
fast
+/-
esc
set tempo
stop
Author
Difficulty
                                      Uptown
                                      Prince

Bass                                                              Prince 

As played by Prince

Intro

2 Bar Drum Fill
                                                                      P
|-----------------|---10--9---7-----|-----------------|---10--9---7---7-|
|---7-------5-----|-----------------|---7-------5-----|-----------------|
|-----------------|-8---7---5-------|-----------------|-8---7---5-------|
|-5-----3---------|-----------------|-5-----3---------|-------------x\--|
  E E E Q   E Q     E E E E E E Q     E E E Q   E Q     E E E E E E E.S

                                                                      P
|-----------------|---10--9---7-----|-----------------|---10----------7-|
|---7-------5-----|-----------------|---7-------5-----|-----------------|
|-----------------|-8---7---5-------|-----------------|-8---7---5-------|
|-5-----3---------|-----------------|-5-----3---------|-------------x\--|
  E E E Q   E Q     E E E E E E Q     E E E Q   E Q     E E Q   Q   E.S

Verse 1

|-----------------|---10--9---7-----|-----------------|---10--9---7-----|
|---7-------5-----|-----------------|---7-------5-----|-----------------|
|-----------------|-8---7---5-------|-----------------|-8---7---5-------|
|-5-----3---------|-------------x\--|-5-----3---------|-----------------|
  E E E Q   E Q     E E E E E E Q     E E E Q   E Q     E E E E E E Q

                                                                      P
|-----------------|---10--9---7-----|-----------------|---10--9---7---7-|
|---7-------5-----|-----------------|--/7-------5-----|-----------------|
|-----------------|-8---7---5-------|-----------------|-8---7---5-------|
|-5-----3---------|-----------------|-5-----3---------|-----------------|
  E E E Q   E Q     E E E E E E Q     E E E Q   E Q     E E E E E E E.S

                                                                      P
|-----------------|---10--9---7-----|-----------------|---10--9---7---7\|
|-----------5-----|-----------------|--/7-------5-----|-----------------|
|-----------------|-8---7---5-------|-----------------|-8---7---5-------|
|-5-----3---------|-------------5\--|-5-----3---------|-------------x\--|
  Q   E Q   E Q     E E E E E E Q     E E E Q   E Q     E E E E E E E.S

                                                                S P S P
|-----------------|---10--9---7-----|-----------------|---10--9---------|
|-----------5-----|-----------------|--/7-------5-----|-----------5---6-|
|-----------------|-8---7---5-------|-----------------|-8---7-----------|
|---5-5-3-3-------|-----------------|-5-----3---------|---------3---4---|
  E E E E E E Q     E E E E E E Q     E E E Q   E Q     E E E E E E E E

|-----------------|---10--9---7-7---|-----------------|---10--9---7-----|
|-----------5-----|---------------7-|---7-------5-----|-----------------|
|-----------------|-8---7---5-------|-----------------|-8---7---5-------|
|-5-----3---------|-----------------|-5-----3---------|-----------------|
  E E E Q   E Q     E E E E E E E.S   E E E Q   E Q     E E E E E E Q

                                                                S P S P
|-----------------|---10--9---7-----|-----------------|---10--9---------|
|---7-------5-----|-----------------|---7-------5-----|-----------5---6-|
|-----------------|-8---7---5-------|-----------------|-8---7-----------|
|-5-----3---------|-----------------|-5-----3---------|---------3---4---|
  E E E Q   E Q     E E E E E E Q     E E E Q   E Q     E E E E E E E E

                                                                      P
|-----------------|---10--9---7-----|-----------------|---10--9---7---7-|
|---7-------5-----|-----------------|-----------5-----|-----------------|
|-----------------|-8---7---5-------|-----------------|-8---7---5-------|
|-5-----3---------|-------------5\--|-5--/0-3---------|-------------5\--|
  E E E Q   E Q     E E E E E E Q     E E E Q   E Q     E E E E E E E.S

|-----------------|---10--9---7-----|-----------------|---10--9---7---9-|
|---7-------5-----|-----------------|-----------5-----|-----------------|
|-----------------|-8---7---5-------|-----------------|-8---7---5---7---|
|-5-----3---------|-------------x\--|-5-----3---------|-----------------|
  E E E Q   E Q     E E E E E E Q     E E E Q   E Q     E E E E E E E E

                                                                      P
|-----------------|-------9---------|-----------------|---10--9---7---7-|
|---7-------5-----|-----------------|---7-------5-----|-----------------|
|-----------------|-8---7---5-------|-----------------|-8---7---5-------|
|-5-----3---------|-----------------|-5-----3---------|-------------5\--|
  E E E Q   E Q     Q   E E E E Q     E E E Q   E Q     E E E E E E E.S

|-----------------|---10--9---7-----|-----------------|---10--9---7-----|
|-----------5-----|-----------------|---7-------5-----|-----------------|
|-----------------|-8---7---5-------|-----------------|-8---7---5-------|
|-5-----3---------|-------------x\--|-5-----3---------|-------------x\--|
  Q   E Q   E Q     E E E E E E Q     E E E Q   E Q     E E E E E E Q

Pre-Chorus 1

|-----------------|-----------------|-----------------|---5/7-----------|
|-----------------|-----------------|-----------------|-----------------|
|-----------------|-3-----5b--------|-----------------|-3-----5---------|
|-1-1-1-1-1-1-1---|-----------------|-1-1-1-1-1-1-1---|-----------------|
  E E E E E E Q     Q.    E H         E E E E E E Q     E E E E H

|-----------------|-----------------|-----------------|-----------------|
|-----------------|-----------------|-----------------|-----------------|
|-----------------|-3-----5---------|-----------------|-----------------|
|-1-1-1-1-1-1-1---|-----------------|-1-1-1-1-1-1-1-1-|-1-1-1-1-1-1-1---|
  E E E E E E Q     Q.    E H         E E E E E E E E   E E E E E E E E

Chorus 1

                                                                  P   P
|-----------------|-------9---7-----|-----------------|---10--9---7---7-|
|---7-------5-----|-----------------|---7-------5-----|-----------------|
|-----------------|-8---7---5-------|-----------------|-8---7---5-------|
|-5-----3---------|-------------x\--|-5---0-3---------|-------------x\--|
  E E E Q   E Q     Q   E E E E Q     E E E Q   E Q     E E E E E E E.S

|-----------------|-------9---7-----|-----------------|-----------------|
|-----------5-----|-----------------|---7-------5-----|-----------------|
|-----------------|-8---7---5-------|-----------------|-8---7-----------|
|-5-----3---------|-----------------|-5-----3---------|---------3---4---|
  Q   E Q   E Q     Q   E E E E Q     E E E Q   E Q     Q   Q   Q   Q

Interlude 1

|-----------------|---10--9---7-----|-----------------|---10--9---7-----|
|---7-------5-----|-----------------|---7-------5-----|-----------------|
|-----------------|-8---7---5-------|-----------------|-8---7---5-------|
|-5-----3---------|-----------------|-5-----3---------|-----------------|
  E E E Q   E Q     E E E E E E Q     E E E Q   E Q     E E E E E E Q

|-----------------|---10---9---7----|-----------------|---10--9---------|
|---7-------5-----|-----------------|---7-------5-----|-----------5---6-|
|-----------------|-8---7---5-------|-----------------|-8---7-----------|
|-5-----3---------|-------------x\--|-5-----3---------|---------3---4---|
  E E E Q   E Q     E E E E E E Q     E E E Q   E Q     E E E E E E E E

Break 1

|-----------------|-----------------|-14----10r9------|-------------7\--|
|-----------------|-----------------|-----------------|-----------------|
|-----------------|-----------------|-----------------|-----------------|
|-5---------------|-----------------|-----------------|-----------------|
  E E Q   H         W                 Q.    E  H        H.          E E

Verse 2


|-----------------|-------------7\--|-----------------|---10--9---7-----|
|-----------------|-----------------|---7-------5-----|-----------------|
|-----------------|-----------------|-----------------|-8---7---5-------|
|-----------------|-----------------|-5-----3---------|-------------x\--|
  W                 H.          E E   E E E Q   E Q     E E E E E E Q

                                                                S P S P
|-----------------|---10--9---7-----|-----------------|---10--9---------|
|---7-------5-----|-----------------|---7-------5-----|-----------5---6-|
|-----------------|-8---7---5-------|-----------------|-8---7-----------|
|-5-----3---------|-----------------|-5-----3---------|---------3---4---|
  E E E Q   E Q     E E E E E E Q     E E E Q   E Q     E E E E E E E E

                                  P
|-----------------|---10--9---7---7-|-----------------|---10--9---7-----|
|---7-------5-----|-----------------|-----------5-----|-----------------|
|-----------------|-8---7---5-------|-----------------|-8---7---5-------|
|-5-----3---------|-----------------|-5-----3---------|-------------x\--|
  E E E Q   E Q     E E E E E E E.S   Q   E Q   E Q     E E E E E E Q

                                                                S P S P
|-----------------|---10--9---7-----|-----------------|---10--9---------|
|---7-------5-----|-----------------|---7-------5-----|-----------5---6-|
|-----------------|-8---7---5-------|-----------------|-8---7-----------|
|-5-----3---------|-----------------|-5-----3---------|---------3---4---|
  E E E Q   E Q     E E E E E E Q     E E E Q   E Q     E E E E E E E E

                                                                    S P S
|-----------------|---10--9---7-----|-----------------|---10--9---7---7---|
|---7-------5-----|-----------------|---7-------5-----|-------------------|
|-----------------|-8---7---5-------|-----------------|-8---7---5---------|
|-5-----3---------|-------------x\--|-5-----3---------|-------------x---x-|
  E E E Q   E Q     E E E E E E Q     E E E Q   E Q     E E E E E E E S S

                                                                    P
|-----------------|---10--9---------|-----------------|---10--9-----7\--|
|-----------5-----|-----------------|---7-------5-----|-----------------|
|-----------------|-8---7---5-------|-----------------|-8---7---5-------|
|-5-----3---------|-----------------|-5-----3---------|-----------------|
  Q   E Q   E Q     E E E E Q   Q     E E E Q   E Q     E E E E Q   Q

Pre-Chorus 2

|-----------------|-----------------|-----------------|-----------------|
|-----------------|-----------------|-----------------|-----------------|
|-----------------|-3-----5---------|-----------------|-3-----5---------|
|-1-1-1-1-1-1-1---|-----------------|-1-1-1-1-1-1-1---|-----------------|
  E E E E E E Q     Q.    E H         E E E E E E Q     Q.    E H

                                                                    P
|-----------------|-----------------|-----------------|-------------10\-|
|-----------------|-----------------|-----------------|-----------------|
|-----------------|-3-----5---------|-----------------|-----------------|
|-1-1-1-1-1-1-1---|-----------------|-1-1-1-1-1-1-1-1-|-1-1-1-1-1-1-----|
  E E E E E E Q     Q.    E H         E E E E E E E E   E E E E E E Q

Chorus 2

|-----------------|---10--9---7-----|-----------------|---10--9---7-----|
|---7-------5-----|-----------------|---7-------5-----|-----------------|
|-----------------|-8---7---5-------|-----------------|-8---7---5-------|
|-5-----3---------|-------------x\--|-5-----3---------|-----------------|
  E E E Q   E Q     E E E E E E Q     E E E Q   E Q     E E E E E E Q

                                                                    S P
|-----------------|-------9---7-----|-----------------|---10--9---7---7-|
|---7-------5-----|-----------------|---7-------5-----|-----------------|
|-----------------|-8---7---5-------|-----------------|-8---7---5-------|
|-5-----3---------|-------------x\--|-5-----3---------|-------------x\--|
  E E E Q   E Q     Q   E E E E Q     E E E Q   E Q     E E E E E E E.S

Break 2

|-----------------|-----------------|-----------------|-----------------|
|-----------------|-----------------|-----------------|-----------------|
|-----------------|-----------------|-----------------|-----------------|
|-----------------|-----------------|-----------------|-----------------|

|-----------------|-----------------|-----------------|-----------------|
|-----------------|-----------------|-----------------|-----------------|
|-----------------|-----------------|-----------------|-----------------|
|-------------5---|(5)--------------|-1---------------|(1)--------------|
  H.          Q     W                 W                 W

                                      5/4
|-----------------|-----------------|---------------------|
|-----------------|-----------------|---------------------|
|-3---------------|(3)--------------|---------------------|
|-----------------|-----------------|-0-------------------|
  W                 W                 W               Q

Solo

|-----------------|---10--9---7-----|-----------------|---10--9---7-----|
|---7-------5-----|-----------------|---7-------5-----|-----------------|
|-----------------|-8---7---5-------|-----------------|-8---7---5-------|
|-5-----3---------|-----------------|-5-----3---------|-----------------|
  E E E Q   E Q     E E E E E E Q     E E E Q   E Q     E E E E E E Q

|-----------------|---10--9---7-----|-----------------|---10--9---------|
|---7-------5-----|-----------------|---7-------5-----|-----------5---6-|
|-----------------|-8---7---5-------|-----------------|-8---7-----------|
|-5-----3---------|-----------------|-5-----3---------|---------3---4---|
  E E E Q   E Q     E E E E E E Q     E E E Q   E Q     E E E E E E E E

Chorus 3

                                  P
|-----------------|---10--9---7---7-|-----------------|-----------------|
|---7-------5-----|-----------------|-7-2/5-----5-----|-----------------|
|-----------------|-8---7---5-------|-----------------|-8---7---5-------|
|-5-----3---------|-------------x---|-------3---------|-------------x\--|
  E E E Q   E Q     E E E E E E E.S   E.S E Q   E Q     Q   Q   Q   Q

|-----------------|---10--9---7-----|-----------------|---10--9---------|
|---7-------5-----|-----------------|---7-------5-----|-----------5---6-|
|-----------------|-8---7---5-------|-----------------|-8---7-----------|
|-5-----3---------|-----------------|-5-----3---------|---------3---4---|
  E E E Q   E Q     E E E E E E Q     E E E Q   E Q     E E E E E E E E

                                                                      P
|-----------------|---10--9---7-----|-----------------|---10--9---7---7\|
|---7-------5-----|-----------------|---7-------5-----|-----------------|
|-----------------|-8---7---5-------|-----------------|-8---7---5-------|
|-5-----3---------|-----------------|-5-----3---------|-----------------|
  E E E Q   E Q     E E E E E E Q     E.S E Q   E Q     E E E E E E E.S

|-----------------|---10--9---7-----|-----------------|-----------------|
|-----------5-----|-----------------|---7-------5-----|---2---4---5---6-|
|-----------------|-8---7---5-------|-----------------|-----------------|
|-5\----3---------|-----------------|-5-----3---------|-1---2---3---4---|
  Q   E Q   E Q     E E E E E E Q     E E E Q   E Q     E E E E E E E E

Outro

|-----------------|---10--9---7-----|-----------------|---10--9---7-----|
|---7-------5-----|-----------------|---7-------5-----|-----------------|
|-----------------|-8---7---5-------|-----------------|-8---7---5-------|
|-5-----3---------|-----------------|-5-----3---------|-----------------|
  E.S E Q   E Q     E E E E E E Q     E.S E Q   E Q     E E E E E E Q

|-----------------|---10--9---7-----|-----------------|---10--9---------|
|---7-------5-----|-----------------|---7-------5-----|-----------5---6-|
|-----------------|-8---7---5-------|-----------------|-8---7-----------|
|-5-----3---------|-----------------|-5-----3---------|---------3---4---|
  E.S E Q   E Q     E E E E E E Q     E.S E Q   E Q     E E E E E E E E

                                                                      P
|-----------------|---10--9---7-----|-----------------|-----------7---7-|
|---7-------5-----|-----------------|---7-------5-----|-----------------|
|-----------------|-8---7---5-------|-----------------|-8---7---5-------|
|-5-----3---------|-----------------|-5-----3---------|-----------------|
  E.S E Q   E Q     E E E E E E Q     E.S E Q   E Q     Q   Q E E E E.S

|-----------------|---10--9---7-----|-----------------|-----------------|
|-----------5-----|-----------------|---7-------5-----|---3---4---5---6-|
|-----------------|-8---7---5-------|-----------------|-----------------|
|-5\----3---------|-----------------|-5-----3-----x\--|-1---2---3---4---|
  Q   E Q   E Q     E E E E E E Q     E.S E Q   E Q     E E E E E E E E

                                                                      P
|-----------------|---10--9---7-----|-----------------|---------------7-|
|---7-------5-----|-----------------|---7-------5-----|-----------------|
|-----------------|-8---7---5-------|-----------------|-8---7---5-------|
|-5-----3---------|-----------------|-5-----3---------|-------------x---|
  E.S E Q   E Q     E E E E E E Q     E.S E Q   E Q     E E E E E E E.S

|-----------------||
|-----------------||
|-----------------||
|-5---------------||
  Q   Q   H


Key to rhythm notations:

W - Whole Note/Semi-Brieve
H - Half Note/Minim
Q - Quarter Note/Crotchet       Q. - Dotted Quarter Note
E - Eight Note/Quaver           E. - Dotted Eight Note
S - Sixteenth Note/Semi-Quaver  S. - Dotted Sixteenth Note
Suggest correction
Creating personal tab
Creating personal tab
You can edit any tab online and save it as your Personal.

You can edit, replace or remove any tab part or add personal notes – all changes will be seen only by you.

Personal tabs can be accessed anytime from any device, even offline.
Learn more »
comments
print report bad tab
guest
You may want to rate the tab now too:
select rating
Wanna post a correction for this tab? Suggest correction