Oops, an error
Loading. Please wait.

When Doves Cry Tab

version 1
version 1

Whole song

Interactive

66,966 views 429 this week
1 commentread comment
1 2 3 4 5
excellent!
x 13
add to favorites
launch autoscroll
font size
0
reset
how to read this tab
guitar tuner
Tab Pro tools
  • play this tab
  • loop segment
  • change instrument
  • show fretboard
  • metronome
×
Best way to learn
"When Doves Cry"
Autoscroll
slow
fast
+/-
esc
set tempo
stop
Contributor
Difficulty
Tabbers playing skills
intermediate
advanced ++
-------------------------------------------------------------------------------
                             WHEN DOVES CRY - Prince
-------------------------------------------------------------------------------


Tabbed by: Isaias Garcia (TexasFury)

Tuning: Standard


[Intro]
                                                                  
      |---3---|      |---3---|        |---3--|   |--3--|                    
      E   E   E      S   S   S  S  S  S   S  S   S  S  S  S   S   E   Q     
E||--------------|---------------------------------------14h-15p-14---L----|
B||--12--15--13--|--12h-13p-12----12-------------------x-------------------|
G||--------------|-------------14----14p-12------------x-------------------|
D||--------------|--------------------------14p-12-----x-------------------|
A||--------------|---------------------------------14----------------------|
E||--------------|---------------------------------------------------------|


                                                  PM
   W                    Q     Q      E    S S S S S  S
---L----------------|---L\-----------------------------|
--------------------|---------------(x)\----------0--0-|
--------------------|---------------(x)\--------x------|
--------------------|----------------------------------|
--------------------|---------------------x-x-x--------|
--------------------|----------------------------------|


  |-3-|  |-3-| |-3-|       |-3| |3|
  S S S  S S S S S S S T T E  S S E  S T T T T S
-------------------------------------------------|
--7-0-0-10-0-0-5-6-7---5-5-----------7-0-0-L-0-5-|
---------------------7-----0--4-4-4--------------|
-------------------------------------------------|
-------------------------------------------------|
-------------------------------------------------|


            |-3-|       |--3--| |-3-| |--3--|
  T  T  T T S S S E  E  S  S  S S S S S  S  S S S    Q    E.  S  Q    Q
----------7-0-0-----------------------------------|------------------------|
--0h-5h-7---------5--5--5h-7p-5-------5h-7p-5-----|------------------------|
--------------------------------7-5-0---------5-0-|--4----L---L~-L---------|
--------------------------------------------------|-------------------x----|
--------------------------------------------------|------------------------|
--------------------------------------------------|------------------------|


  Q    Q     Q    Q        Q    Q     Q    Q        Q    Q     E   E    Q
------------------------|------------------------|----------------------------||
------------------------|------------------------|----------------------------||
------------------------|------------------------|----------------------------||
------------------------|------------------------|----------------------------||
------------------------|------------------------|----------------12b--12\----||
-------5b---------5b----|-------5b---------5b----|-------5b-------------------||



[Guitar Solo] - m.76  
                                                                
  W                   H        E  E    E  E      H.           E  S S  
-------------------|--------------------------|----------------------|
--5----------------|--L--------L--------------|----------------------|
-------------------|--------------7br--L--Lb--|--7------------L--5---|
-------------------|--------------------------|--------------------7-|
-------------------|--------------------------|----------------------|
-------------------|--------------------------|----------------------|


                                         PM PM          
  E  E  Q.     E  E  E      Q    Q    E  S  S  E  E     
-------------------------|-----------------------------|
-------------------------|-----------------------------|
--5---------------5--7b--|--7----5-------------5--7br--|
-----7--L------7---------|---------------7--7----------|
-------------------------|-----------------------------|
-------------------------|-----------------------------|


                PM PM                                          
  Q    E  E  E  S  S  E  E       E  S S E  E     E  S S E  E   
------------------------------|-------------------------------|
------------------------------|-------------------------------|
--7----5--------------5--7br--|--5------5--7pbr--7--5---5-----|
----------7-----7--7----------|-----7-7---------------7----7--|
------------------------------|-------------------------------|
------------------------------|-------------------------------|


  S  S S  S E  S  S S S E  S S E     Q.     E  Q    E  E   
----------------------------------|-----------------------|
----------------------------------|-----------------------|
-----------------------------4-5--|--7------7--7----7--7--|
--5p-4-5h-7-5--5p-4---4-5--7------|-----------------------|
--------------------7-------------|-----------------------|
----------------------------------|-----------------------|


                |-3-| |-3-|                                      
  E  E  S S S S S S S S S S E  E     Q      E    E  E  E  E  E   
----------------------------------|-----------------------------|
----------------------------------|-----------------------------|
--7--7--7-7-7-7-7-7-7-7-7-7-7--5--|--7br----Lpb--7--7--7--5--5--|
----------------------------------|-----------------------------|
----------------------------------|-----------------------------|
----------------------------------|-----------------------------|


                                        PM                      
  E    E    E  E  S  S E  E  E     S  S E  H         E    S  S  
--------------------------------|------------------------------|
--------------------------------|------------------------------|
--Lpb--7br--L--7--7p-5-5--5--5--|--5p-4----7b--------Lpb--Lp-5-|
--------------------------------|-------7----------------------|
--------------------------------|------------------------------|
--------------------------------|------------------------------|


  Q.     E  E  E  E  S  S    Q    E  E  Q    E     E   
--------------------------|---------------------------|
--------------------------|---------------------------|
--7------7--L--7--L--7p-5-|--5----7-------------------|
--------------------------|----------7--L----L\-------|
--------------------------|----------------------1g7--|
--------------------------|---------------------------|


  Q    E  E  Q         E   E      H.             E    E    
------------------------------|---------------------------|
--------------------------17--|--20b------------20b---Lb--|
--5----7-----------11g19------|---------------------------|
----------7--L\---------------|---------------------------|
------------------------------|---------------------------|
------------------------------|---------------------------|


   |------3------|      |------3------|      
   Q      Q      Q      Q      Q      Q      
--------------------------------------------|
---Lb-----Lb-----Lb-----Lb-----Lb-----Lb----|
--------------------------------------------|
--------------------------------------------|
--------------------------------------------|
--------------------------------------------|


  E   S  S  S   S  S  S   E   S   S  S   S  S  S  
-------------------------------------------------|
-------------------------------------------------|
-----12--------------12~--L-------------------12-|
--------14-12h-14-14---------14p-12-14p-12-14----|
-------------------------------------------------|
-------------------------------------------------|


       |---3--|  |---3--|                                 
   E   S  S   S  S   S  S  S  S   E   S   S  S   S  S  S  
---------------------------------------------------------|
---------------------------------------------------------|
---L--12---------------------12~--L-------------------12-|
---------14p-12----------------------14p-12-14p-12-14----|
----------------15p-14-12--------------------------------|
--------------------------15-----------------------------|


   E   S  S  S  S   S  S   S  S  S  S  S  S   S  S   
----------------------------------------------------|
----------------------------------------------------|
--12------------------12~--L-12-----------------12~-|
------14-12-14------------------14-12-14------------|
---------------12h-15--------------------12h-15-----|
----------------------------------------------------|


   S  S  S  S  S  S   S  S   E   S  S  S  S  E   
------------------------------------------------|
------------------------------------------------|
---L-12-----------------12~--L------------------|
--------14-12-14----------------14-13-14-12-----|
-----------------12h-15---------------------15--|
------------------------------------------------|


  E   S  S S S S  S  Q     S E  S    S S S S E  E  E  E   E  E    
----------------------------------|-----------------------------||
---------7---7--------------------|-----------------------------||
-----10b---9---9b-7~-7~----5----5-|----5-5---5--7--9--9s--5--7--||
-----------------------------7----|--7-----7--------------------||
----------------------------------|-----------------------------||
----------------------------------|-----------------------------||


Duration Legend
---------------
W - whole
H - half
Q - quarter
E - 8th
S - 16th
T - 32nd
X - 64th
. - note dotted
|-n-|  - n-tuplets


Tablature Legend
----------------
L - tied note
x - dead note
g - grace note
h - hammer on
p - pull off
b - bend
S - shift slide
s - legato slide
/ -  slide into from below or out of upwards
\ -  slide into from above or out of downwards
~ - vibrato

Get my other tabs for Guitar Pro, Powertab, guitar/bass text and chords at
http://profile.ultimate-guitar.com/TexasFury/contributions/
comments
print report bad tab
1 comment total.
0 reply
PiercedBand wrote on December 22 2014, 11:03 pm

This is perfect. 5 stars

I want to post or [tab]
guest
You may want to rate the tab now too:
select rating
Please do not post tabs as comments. Select "correction" instead!