Oops, an error
Loading. Please wait.

When You Were Mine Bass

by Prince
619 views 1 this week
no commentswrite comment
1 2 3 4 5
x 3
add to favorites
launch autoscroll
font size
0
reset
guitar tuner
Autoscroll
slow
fast
+/-
esc
set tempo
stop
Author
Difficulty
intermediate
                                When You Were Mine
                                      Prince

Bass                                                              Prince 

As played by Prince

Intro

|-----------------|-----------------|-----------------|-----------------|
|-----------------|-----------------|-----------------|-----------------|
|---------------2-|(2)2-----2---2---|-0---0---0-0-0-2-|(2)--2--/4---2-4-|
|-0---0---0-2-4---|-----------------|-----------------|-----------------|
  Q   Q   E E E E   E E Q   Q   Q     Q   Q   E E E E   Q   Q   Q   E E

|-----------------|-----------------|-----------------|-----------------|
|-----------------|-----------------|-----------------|-----------------|
|---------------2-|(2)2-----2---2---|-0---0---0-0-0-2-|(2)--2---2-2-2---|
|-0---0---0-2-4---|-----------------|-----------------|-----------------|
  Q   Q   E E E E   E E Q   Q   Q     Q   Q   E E E E   Q   Q   E E Q

Verse 1

|-----------------|-----------------|-----------------|-----------------|
|-----------------|-----------------|-----------------|-----------------|
|---------------2-|(2)2-----2-----0-|-0---0---0-0-0-2-|(2)--2--/4---2---|
|-0---0---0-2-4---|-----------------|-----------------|-----------------|
  Q   Q   E E E E   E E Q   Q.    E   Q   Q   E E E E   Q   Q   Q   Q

|-----------------|-----------------|-----------------|-----------------|
|-----------------|-----------------|-----------------|-----------------|
|---------------2-|(2)2-----2---2-0-|-0---0---0-0-0-2-|(2)2-2---2-2-2-4-|
|-0---0---0-2-4---|-----------------|-----------------|-----------------|
  Q   Q   E E E E   E E Q   Q   E E   Q   Q   E E E E   E E Q   E E E E

|-----------------|-----------------|-----------------|-----------------|
|-----------------|-----------------|-----------------|-----------------|
|---------------2-|(2)2-----2-----0-|-0-0-0---0-0-0-2-|(2)--2---4-4-2---|
|-0---0---0-2-4---|-----------------|-----------------|-----------------|
  Q   Q   E E E E   E E Q   Q.    E   E E Q   E E E E   Q   Q   E E Q

|-----------------|-----------------|-----------------|-----------------|
|-----------------|-----------------|-----------------|-----------------|
|---------------2-|(2)2-----2---2-0-|-0---0---0-0-0-2-|(2)--2--/4---2---|
|-0---0---0-2-4---|-----------------|-----------------|-----------------|
  Q   Q   E E E E   E E Q   Q   E E   Q   Q   E E E E   Q   Q   Q   Q

|-----------------|-----------------|-----------------|-----------------|
|-----------------|-----------------|-----------------|-----------------|
|---------------2-|(2)2-----2---2-0-|-0---0---0-0---2-|(2)--2--/4---2-4-|
|-0---0---0-2-4---|-----------------|-----------------|-----------------|
  Q   Q   E E E E   E E Q   Q   E E   Q   Q   E E E E   Q   Q   Q   E E

|-----------------|-----------------|-----------------|-----------------|
|-----------------|-----------------|-----------------|-----------------|
|---------------2-|(2)2-----2-----0-|-0---0---0-0-0-2-|(2)--2--/4---2-4-|
|-0---0---0-2-4---|-----------------|-----------------|-----------------|
  Q   Q   E E E E   E E Q   Q.    E   Q   Q   E E E E   Q   Q   Q   E E

Chorus 1

|-----------------|-----------------|-----------------|-----------------|
|-----------------|-----------------|-----------------|-----------------|
|-----------------|-----------------|-----------------|-----------------|
|-5-----------5---|-7---------------|-4-------------0-|-5---------------|
  H.          Q     W                 H.          E E   W

|-----------------|-----------------|-----------------|-----------------|
|-----------------|-----------------|-----------------|-----------------|
|-----------------|-----------------|-----------------|-----------------|
|-5---------------|-7-----------5---|-4---------------|-5---------------|
  W                 H.          Q     W                 W

|-----------------|-----------------|
|-----------------|-----------------|
|-0---------------|-2---------------|
|-----------------|-----------------|
  W                 W

Interlude 1

|-----------------|-----------------|-----------------|-----------------|
|-----------------|-----------------|-----------------|-----------------|
|---------------2-|(2)2-----2---2-0-|-0---0-0-0-0-0-2-|(2)--2--/4---2-4-|
|-0---0---0-2-4---|-----------------|-----------------|-----------------|
  Q   Q   E E E E   E E Q   Q   E E   Q   E E E E E E   Q   Q   Q   E E

|-----------------|-----------------|-----------------|-----------------|
|-----------------|-----------------|-----------------|-----------------|
|---------------2-|(2)2-----2---2-0-|-0---0---0-0---2-|(2)----2-2-2-2-2-|
|-0---0---0-2-4---|-----------------|-----------------|-----------------|
  Q   Q   E E E E   E E Q   Q   E E   Q   Q   E E E E   Q.    E E E E E

Verse 2

|-----------------|-----------------|-----------------|-----------------|
|-----------------|-----------------|-----------------|-----------------|
|---------------2-|(2)2-----2-----0-|-0-------0-0---2-|(2)--2--/4---2-4-|
|-0---0---0-2-4---|-----------------|-----------------|-----------------|
  Q   Q   E E E E   E E Q   Q.    E   H       E Q   E   Q   Q   Q   E E

|-----------------|-----------------|-----------------|-----------------|
|-----------------|-----------------|-----------------|-----------------|
|---------------2-|(2)2-----2-----0-|-0-------------2-|(2)--2-------2---|
|-0---0---0-2-4---|-----------------|-----------------|-----------------|
  Q   Q   E E E E   E E Q   Q.    E   H       Q   E E   Q   E E Q   Q

|-----------------|-----------------|-----------------|-----------------|
|-----------------|-----------------|-----------------|-----------------|
|---------------2-|(2)2-----2-----0-|-0-------0-0---2-|(2)--2--/4---2---|
|-0---0---0-2-4---|-----------------|-----------------|-----------------|
  Q   Q   E E E E   E E Q   Q.    E   H       E Q   E   Q   Q   Q   Q

|-----------------|-----------------|-----------------|-----------------|
|-----------------|-----------------|-----------------|-----------------|
|---------------2-|(2)2-----2---2-0-|-0-------0-0-0-2-|(2)--2-2/4---2-4-|
|-0---0---0-2-4---|-----------------|-----------------|-----------------|
  Q   Q   E E E E   E E Q   Q   E E   H       E E E E   Q   E E Q   E E

Chorus 2

|-----------------|-----------------|-----------------|-----------------|
|-----------------|-----------------|-----------------|-----------------|
|-----------------|-----------------|-----------------|-----------------|
|-5---------------|-7-----------7-5-|-4-----4-----4-0-|-5---------5-5-5-|
  W                 H.          E E   Q.    Q.    E E   H       E E E E

|-----------------|-----------------|-----------------|-----------------|
|-----------------|-----------------|-----------------|-----------------|
|-----------------|-----------------|-----------------|-----------------|
|-5-------5---5---|-7-----7-----7-0-|-4-------------0-|-5---------------|
  H       Q   Q     Q.    Q.    E E   H.          E E   W

|-----------------|-----------------|
|-----------------|-----------------|
|-0---------------|-2---------------|
|-----------------|-----------------|
  W                 W

Solo

|-----6-----------|-----------------|-----------------|-----------------|
|-----------------|-----6-----------|-----7-----------|-----7-----------|
|-4-----------4\--|-----------------|-----------------|-------------7\--|
|-----------------|-4-----------4\0-|-5-----------5\0-|-5---------------|
  Q   E E Q   Q     Q   E E Q   E E   Q   E E Q   E E   Q   E E Q   Q

|-----------------|-----------------|-----------------|-----------------|
|-----------------|-----6-----------|-----7-----------|-----------------|
|-4---------------|-----------------|-----------------|-----------------|
|-----------------|-4---------------|-5---------------|-5-5-5-5---------|
  H       H         Q   E E H         Q   E E H         E E E E H

Bridge

|----------------|-----------------|
|---  7 Bars  ---|-----------------|
|---   Rest   ---|-2-2-2-2-2-2-2-2-|
|----------------|-----------------|
                   E E E E E E E E

Chorus 3

|-----------------|-----------------|-----------------|-----------------|
|-----------------|-----------------|-----------------|-----------------|
|-----------------|-----------------|-----------------|-----------------|
|-5-----------5---|-7-----------7-5-|-4---------------|-5---------------|
  H.          Q     H.          E E   W                 W

|-----------------|-----------------|-----------------|-----------------|
|-----------------|-----------------|-----------------|-----------------|
|-----------------|-----------------|-----------------|-----------------|
|-5-------5---5---|-7-----------7-5-|-4-------------0-|-5---------------|
  H       Q   Q     H.          E E   H.          E E   W

|-----------------|-----------------|
|-----------------|-----------------|
|-0---------------|-2---------------|
|-----------------|-----------------|
  W                 W

Outro

|-----------------|-----------------|-----------------|-----------------|
|-----------------|-----------------|-----------------|-----------------|
|---------------2-|(2)2-----2---2-0-|-0-------0-0-0-2-|(2)--2--/4---2-4-|
|-0---0---0-2-4---|-----------------|-----------------|-----------------|
  Q   Q   E E E E   E E Q   Q   E E   H       E E E E   Q   Q   Q   E E

|-----------------|-----------------|-----------------|-----------------|
|-----------------|-----------------|-----------------|-----------------|
|---------------2-|(2)2-----2---2-0-|-0---0---0-0-0-2-|(2)--------2-2-2-|
|-0---0---0-2-4---|-----------------|-----------------|-----------------|
  Q   Q   E E E E   E E Q   Q   E E   Q   Q   E E E E   H       E E E E

|-----------------|-----------------|-----------------|-----------------|
|-2---2-----------|-----------------|-----------------|-----------------|
|---------------2-|(2)2-----2---2-0-|-0---0---0-0-0-2-|(2)--2--/4---2---|
|---------0-2-4---|-----------------|-----------------|-----------------|
  Q   Q   E E E E   E E Q   Q   E E   Q   Q   E E E E   Q   Q   Q   Q

|-----------------|-----------------|-----------------|-----------------|
|-----------------|-----------------|-----------------|-----------------|
|---------------2-|(2)2-----2---2-0-|-0-------0---0-2-|(2)--------------|
|-0---0---0-2-4---|-----------------|-----------------|-----------------|
  Q   Q   E E E E   E E Q   Q   E E   H       Q   E E   W

|-----------------|-----------------|-----------------|-----------------|
|-----------------|-----------------|-----------------|-----------------|
|---------------2-|(2)2-----2---2-0-|-0-------0---0-2-|(2)--2---2---2---|
|-0---0---0-2-4---|-----------------|-----------------|-----------------|
  Q   Q   E E E E   E E Q   Q   E E   H       E E E E   Q   Q   Q   Q

||------------------|-----------------|-----------------|-----------------|
||o-----------------|-----------------|-----------------|-----------------|
||o---------------2-|(2)2-----2---2-0-|-0-------0-0-0-2-|(2)--2---2-2-2-2-|
||--0---0---0-2-4---|-----------------|-----------------|-----------------|
    Q   Q   E E E E   E E Q   Q   E E   H       E E E E   Q   Q   E E E E

                                                           Repeat to fade
|-----------------|-----------------|-----------------|------------------||
|-----------------|-----------------|-----------------|-----------------o||
|---------------2-|(2)2-----2---2-0-|-0-------0-0-0-2-|(2)--2---2---2---o||
|-0---------2-4---|-----------------|-----------------|------------------||
  H         E E E   E E Q   Q   E E   H       E E E E   Q   Q   Q   Q


Key to rhythm notations:

W - Whole Note/Semi-Brieve
H - Half Note/Minim
Q - Quarter Note/Crotchet       Q. - Dotted Quarter Note
E - Eight Note/Quaver           E. - Dotted Eight Note
S - Sixteenth Note/Semi-Quaver  S. - Dotted Sixteenth Note
Suggest correction
Give kudos to tab author, rate the tab!
1 2 3 4 5
comments
print report bad tab
guest
You may want to rate the tab now too:
select rating
Wanna post a correction for this tab? Suggest correction