Oops, an error
Loading. Please wait.

Darte Un Beso Chords

92,658 views 483 this week
4 commentsread comments
1 2 3 4 5
excellent!
x 39
add to favorites
launch autoscroll
font size
0
reset
transpose
0
reset
display chords
guitar tuner
Autoscroll
slow
fast
+/-
esc
set tempo
stop
Help us to improve Ultimate-Guitar.com Take our survey!
×
Author
Difficulty
Capo
novice
4th fret
Capo 4th fret
The strumming pattern for this song is relatively simple. It's DUDU,
But on the third strum, you add a sort of palm mute effect to your strum.
This song is my first song and feel free to send any song corrections or
suggestions.

[Intro riff]

E|-------------------------|-------------------------|
B|-----0h1p0---------------|-----0h1p0---------------|
G|------------2p0--0h2-----|------------2p0--0h2-----|
D|--2-------------------3--|--3-------------------2--|
A|-------------------------|-------------------------|
E|-------------------------|-------------------------|


[Riff]

E|--0h1--0----------|
B|----------1h3--1--|
G|------------------|
D|------------------|
A|------------------|
E|------------------|


[Intro]

E|-------------------------|-------------------------|
B|-----0h1p0---------------|-----0h1p0---------------|
G|------------2p0--0h2-----|------------2p0--0h2-----|
D|--2-------------------3--|--3-------------------2--|
A|-------------------------|-------------------------|
E|-------------------------|-------------------------|


[Verse]

C             G             Am F
Amarte como te amo es complicado
C               G            Am F
Pensar como te pienso es un pecado
C               G       Am      F
Mirar como te miro está prohibido
C               G         Am   F
Tocarte como quiero es un delito.


[Pre-Chorus]

G
Ya no sé que hacer, para que estés bien
Am                                 D
Si apagar el sol para encender tu amanecer
G
Falar en portugués, aprender a hablar francés
Am
O bajar la luna hasta tus pies.


[Chorus]
               F
Yo solo quiero darte un beso
G           Am
Y regalarte mis mañanas
       F
Cantar para calmar tus miedos
G             Am
Quiero que no te falte nada
               F
Yo solo quiero darte un beso
G        Am
Llenarte con mi amor el alma
F
Llevarte a conocer el cielo
G             Am
Quiero que no te falte nada.

E|--0h1--0----------|
B|----------1h3--1--|
G|------------------|
D|------------------|
A|------------------|
E|------------------|

F F G Am


[Verse]

C                   G        Am  F
Si el mundo fuera mío, te lo daría
C               G    Am      C
Hasta mi religión la cambiaría
C                 G            Am  F
Porque hay tantas cosas que yo haría
C             G           Am     F
Pero tú no me das, ni das noticias


[Pre-Chorus]

G
Ya no sé que hacer, para que estés bien
Am                         D
Si apagar el sol para encender tu amanecer
G
Falar en portugués, aprender a hablar francés
Am
O bajar la luna hasta tus pies.


[Chorus]

               F           G
Yo solo quiero darte un beso
           Am
Y regalarte mis mañanas
               F         G
Cantar para calmar tus miedos
               Am
Quiero que no te falte nada

E|--0h1--0----------|
B|----------1h3--1--|
G|------------------|
D|------------------|
A|------------------|
E|------------------|

F F G Am x2
               F           G
Yo solo quiero darte un beso
               Am
Llenarte con mi amor el alma
        F              G
Sólo quiero darte un beso
       Am
Quiero que no te falte nada
        F              G
Yo sólo quiero darte un beso
               Am
Llevarte a conocer el cielo
     F
Sólo quiero darte un beso
G              Am
Quiero que no te falte nada.


E|-------------------------|-------------------------|
B|-----0h1p0---------------|-----0h1p0---------------|
G|------------2p0--0h2-----|------------2p0--0h2-----|
D|--2-------------------3--|--3-------------------2--|
A|-------------------------|-------------------------|
E|-------------------------|-------------------------|

        F              G
Yo sólo quiero darte un beso
       Am
Quiero que no te falte nada



************************************

| h  Hammer-on
| p  Pull-off

************************************
Suggest correction
What's this?
You can suggest a correction to this tab. Community and Mods will review your correction and vote to approve or reject it.
comments
print report bad tab
4 comments total. Showing first comments.
+1 reply
Gabytomix 12 wrote on February 26 2014, 08:31 pm

gracias !!

+1 reply
shai2009 108 wrote on August 1 2014, 03:09 am

Great chords, thanks alot!

+1 reply
studionafas 12 wrote on April 19 2015, 05:44 pm

Great thanks !

guest
You may want to rate the tab now too:
select rating
Please do not post tabs as comments. Select "correction" instead!