Oops, an error
Loading. Please wait.

Stand By Me tab

1,339 views 24 this week
no commentswrite comment
1 2 3 4 5
2 more votes to show rating
add to favorites
×
Save as Personal and add changes to this tab that will be seen only by you. Learn more ›
×
You can save this tab as Personal to edit and correct it or add notes. All changes will be seen only by you. Learn more »
launch autoscroll
font size
0
reset
how to read this tab
guitar tuner
edit
Autoscroll
slow
fast
+/-
esc
set tempo
stop
-------------------------------------------------------------------------------
                             Stand By Me - Prince Royce
-------------------------------------------------------------------------------
Escuchen la cancion y siguen esta tablatura y ya tu saben como es.

Tuning: Standard
Capo 2

e|--------------------------------------------------------------------------------------------|
B|--------------------------------------------------------------------------------------------|
G|0-0------0-0-0---------------------------------------0-0-----0------------------------------|
D|-----0-4--------4--2-2-0-2-2-2-0----------2-0-0-0-4------0-4--------------------------------|
A|-----------------------------------3-3-3----------------------------------------------------|
E|--------------------------------------------------------------------------------------------|

e|------------------------------------------------------------------------------------------|
B|---3------3--------3--------3---------0---0--1p0--------3-1--1p0--------------------------|
G|-----4------4---4----4--------0---------0---------0---------------2-0-0-------------------|
D|5------5------5--------5-4------4--2-----------------2------------------------------------|
A|------------------------------------------------------------------------------------------|
E|------------------------------------------------------------------------------------------|

e|---------------------------3p2------------------------3-----------------------------------|
B|-----1-3---1------------3-------3---------3-3h5--3-3-----0-1-0----------------------------|
G|--0--------------0----2----------------4------------------------2-------------------------|
D|2-------------2-----0--------------0------------------------------------------------------|
A|------------------------------------------------------------------------------------------|
E|------------------------------------------------------------------------------------------|

e|-----------------------------------------------0------------------------0----------------|
B|3------3----------3----------3----------0-1-3-----0-3---1-0----0------1------------------|
G|--4------0----------4----------0-----------------------------2------0--------------------|
D|----5------4---5------5---4------4---2---------------------------------------------------|
A|-----------------------------------------------------------------------------------------|
E|-----------------------------------------------------------------------------------------|

e|----3p2-----------------0----------------------------------------------------------------|
B|--3------3-1-0---3--------3-------------------0------------------------------------------|
G|2------------------4--------4-------4----0-2---------------------------------------------|
D|------------------------------5---5----0-------------------------------------------------|
A|-----------------------------------------------------------------------------------------|
E|-----------------------------------------------------------------------------------------|

e|---------------------------------------------------------------------------------------|
B|----3-----3------------3---------3-----------0-----0----------0-------1p0--------------|
G|--4----------4---4--------4--------0-------0---------0---0------0----------0-----------|
D|5-------5------5-----5------5--4-----4---2-------2-----2----------2----------2---------|
A|---------------------------------------------------------------------------------------|
E|---------------------------------------------------------------------------------------|

e|-------------------------3p2-------------3-----5----3-------------------------------|
B|----1----3p1-----------3-----3---------3-------3----3-------------------------------|
G|--0----0------0------2-----------2---4---------4----4-------------------------------|
D|----------------2--0----------------------------------------------------------------|
A|3-----------------------------------------------------------------------------------|
E|------------------------------------------------------------------------------------|

e|------------------------------------------------------------------------------------------|
B|---3-------3---------3---------3---------0---0--1p0--------3--1--1p0----------------------|
G|-----4-------4---4-----4---------0---------0---------0-----------------2--0--0------------|
D|5------5-------5---------5--4------4---2---------------2----------------------------------|
A|------------------------------------------------------------------------------------------|
E|------------------------------------------------------------------------------------------|

e|---------------------------3p2--------------------------3---------------------------------|
B|----1--3--1--------------3------3--------3--3h5--3--3------0--1--0------------------------|
G|--0-------------0------2--------------4-----------------------------2---------------------|
D|2------------2-------0-------------0------------------------------------------------------|
A|------------------------------------------------------------------------------------------|
E|------------------------------------------------------------------------------------------|

e|-----------------------------------------------------3--5--7--------------------------|
B|3------3-------------3---------3-----------0--0h1----5--7--8--------------------------|
G|--4------4-------------4---------0----------------------------------------------------|
D|----5------5--4---5------5--4------4----2---------------------------------------------|
A|--------------------------------------------------------------------------------------|
E|--------------------------------------------------------------------------------------|

e|---------------------------0h2-------------------------------3-----------------------|
B|---1------3p1------------3-----3------3------3-------------3------------0------------|
G|-----0---------0-------2---------2------4------4---4-----4--------0--2---------------|
D|2------2----------2--0-------------0------5------5-----5--------0--------------------|
A|-------------------------------------------------------------------------------------|
E|-------------------------------------------------------------------------------------|

e|---------------------------------------------------------------------------------------|
B|----3-----3---------------3---------3------------0------0----------0------1p0----------|
G|--4------------4---4--------4---------0--------0-----------0---0-----0---------0-------|
D|5-------5--------5------5-----5--4------4----2-------2-------2---------2----------2----|
A|---------------------------------------------------------------------------------------|
E|---------------------------------------------------------------------------------------|

e|---------------------------------3p2-----------------3----5--3----------------------|
B|-----1------3p1---------------3-------3-----------3-------3--3----------------------|
G|---0-----0--------0---------2-------------2----4----------4--4----------------------|
D|---------------------2----0---------------------------------------------------------|
A|3-----------------------------------------------------------------------------------|
E|------------------------------------------------------------------------------------|

e|-------------3--5--5/7---5--3---2----2h3----2h3---3p2-----0----2h3p2----0--------------------------|
B|0---3--3h5-------------------------------------------------------------------3---------------------|
G|---------------------------------------------------------------------------------------------------|
D|---------------------------------------------------------------------------------------------------|
A|---------------------------------------------------------------------------------------------------|
E|---------------------------------------------------------------------------------------------------|

e|-------------2-------5---3-------------------------------------------------------------------|
B|3--3-------3-------3-----3------------------3--3-----1--0-------------------3-3---1-0--------|
G|---------2-------4-------4----------0----2------------------2---0----0-0-2--------------2-0--|
D|----------------------------------0----------------------------------------------------------|
A|--------------------------------2------------------------------------------------------------|
E|------------------------------3--------------------------------------------------------------|

e|------------------------------------------------------------------------------------|
B|---------0--0----------0--0------------3--0-----------------------------------------|
G|0--0--2---------0-0-2---------0--0--2-----------------------------------------------|
D|------------------------------------------------------------------------------------|
A|------------------------------------------------------------------------------------|
E|------------------------------------------------------------------------------------|

e|---------------------------------------------------------------------------------------|
B|----3------3------------3-----------3-----------0-------0---------0-------1p0----------|
G|--4----------4---4--------4-----------0-------0-----------0----0----0-----------0------|
D|5-------5------5------5-----5----4------4---2--------2------2---------2------------2---|
A|---------------------------------------------------------------------------------------|
E|---------------------------------------------------------------------------------------|

e|------------------------------3p2--------------3----3------------------------------|
B|-----1------3p1------------3-------3---------3------3------------------------------|
G|---0----0--------0-------2-------------2---4--------4------------------------------|
D|--------------------2--0-----------------------------------------------------------|
A|3----------------------------------------------------------------------------------|
E|-----------------------------------------------------------------------------------|

e|--0---0------------0------0---0-----------0-----0---0----------0---7h8p7-------------------------|
B|5---5-----5--5--5-------7---7----7--7--7------8---8----8--8--8-------------10--8--8h10-----------|
G|-------------------------------------------------------------------------------------------------|
D|-------------------------------------------------------------------------------------------------|
A|-------------------------------------------------------------------------------------------------|
E|-------------------------------------------------------------------------------------------------|

e|--0---0----------0-----0---0-----------0-----0---0----------0---3/5--3/5--3/5--3/5--------------|
B|5---5----5--5--5-----7---7-----7--7--7-----8---8----8--8--8--------------------------3/5--------|
G|------------------------------------------------------------------------------------------------|
D|------------------------------------------------------------------------------------------------|
A|------------------------------------------------------------------------------------------------|
E|------------------------------------------------------------------------------------------------|

e|3----5--5--5/7--5--5--3--5--------3-----5-5-5/7--5-5-3----------------------------------------|
B|--5--------------------------3/5-----5-----------------5--3--1--1p0---------------------------|
G|---------------------------------------------------------------------0h2--2h4--2--0-----------|
D|----------------------------------------------------------------------------------------------|
A|----------------------------------------------------------------------------------------------|
E|----------------------------------------------------------------------------------------------|

e|---------------------------------------------------------3--------3--------3-----7---8p7--5-3-------|
B|----5---------5---------5-------7---------7--------7--------3-2h3----3-2h3--------------------------|
G|4h5-----5-4h5-----5-4h5-----5h7----7--5h7------5h7-----4--------------------------------------------|
D|---------------------------------------------7------------------------------------------------------|
A|----------------------------------------------------------------------------------------------------|
E|----------------------------------------------------------------------------------------------------|

e|-----------------------------3p2---------------------3---3-------------------------|
B|-----1-----3p1------------3-------3-----------3----------3-------------------------|
G|---0----0-------0-------2-------------2---------4--------4-------------------------|
D|------------------2---0--------------------5------5--------------------------------|
A|3----------------------------------------------------------------------------------|
E|-----------------------------------------------------------------------------------|

            
            
Suggest correction
Creating personal tab
Creating personal tab
You can edit any tab online and save it as your Personal.

You can edit, replace or remove any tab part or add personal notes – all changes will be seen only by you.

Personal tabs can be accessed anytime from any device, even offline.
Learn more »
Give kudos to tab author, rate the tab!
1 2 3 4 5
comments
print report bad tab
guest
You may want to rate the tab now too:
select rating
Wanna post a correction for this tab? Suggest correction