Oops, an error
Loading. Please wait.

Kompass Ohne Norden tab

13,910 views 24 this week
1 commentread comment
1 2 3 4 5
x 11
add to favorites
×
Save as Personal and add changes to this tab that will be seen only by you. Learn more ›
×
You can save this tab as Personal to edit and correct it or add notes. All changes will be seen only by you. Learn more »
launch autoscroll
font size
0
reset
how to read this tab
guitar tuner
edit
Autoscroll
slow
fast
+/-
esc
set tempo
stop
Author
Difficulty
[Intro]

       Am        F         C          G
E||-----------------------------------3---|
B||----------1---------1---------1----3---|
G||--------2---------2---------0------0---|
D||------2---------3---------2--------0---|
A||----0---------3---------3----------2---|
E||-----------------------------------3---|

E||-------------------------------3-------|
B||----------1---------1----------3-------|
G||--------2---------2---------0--0-------|
D||------2---------3---------2----0-------|
A||----0---------3---------3------2-------|
E||-------------------------------3-------|


[Refrain](dazu Solo)  

Am F C G | x4


[Solo]

E||-----------------------------------------------| |Den ersten Ton(/7)immer
B||----------------6-6--/8--5--5------------------| |nur beim ersten
G||-------------5----------------7-5-7-s9--7-7-5--| |Durchspielen
D||----/7--5-7------------------------------------| |
A||-----------------------------------------------| |
E||-----------------------------------------------| |
                                                     \ |x2
                                                     /
E||-----------------------------------------------| |
B||------------6-6--/8--5--5----------------------| |
G||---------5----------------7-5-7-s9--5----------| |
D||-----5-7---------------------------------------| |
A||-----------------------------------------------| |
E||-----------------------------------------------| |


[Strophe] 

Am F C G   x10


[Refrain](dazu Solo)  

Am F C G   x4


[Bridge](wie Intro)

       Am        F         C          G
E||-----------------------------------3---|-- |
B||----------1---------1---------1----3---|-- |
G||--------2---------2---------0------0---|-- |
D||------2---------3---------2--------0---|-- |
A||----0---------3---------3----------2---|-- |
E||-----------------------------------3------ | \
                                             |x4
E||-------------------------------3---------- | /
B||----------1---------1----------3-------|-- |
G||--------2---------2---------0--0-------|-- |
D||------2---------3---------2----0-------|-- |
A||----0---------3---------3------2-------|-- |
E||-------------------------------3-------|-- |


[Refrain](dazu Solo)   

Am F C G   x4


[Strophe] 

Am F C G   x4


Solo


[Refrain](dazu Solo)  

Am F C G   x4

Ende auf Am

-Habe mir die Tabs selber rausgehört.Es kann also sein, dass es nicht 100% richtig ist, 
aber hört sich eigentlich ganz okay an ;)
Hier meine Version von "Prinz Pi - Kompass ohne Norden" mit diesen Tabs:

http://www.youtube.com/watch?v=C6TXLSRTp4I



************************************

| /  Slide up
| s  Slide
 
************************************
Suggest correction
Creating personal tab
Creating personal tab
You can edit any tab online and save it as your Personal.

You can edit, replace or remove any tab part or add personal notes – all changes will be seen only by you.

Personal tabs can be accessed anytime from any device, even offline.
Learn more »
comments
print report bad tab
1 comment total.
0 reply
guitar-mayo 50 Oct 11, 2013 07:52 AM

Die Akkorde kann man wahlweise noch so variieren, klingt super find ich:

E||----0--0000---1-1--1-3---1--0000---3-3--0------|
B||----1--1111---1-1--1-1---1--1111---3-3--3-3-3--|
G||----2--2222---2-2--2-1---0--0000---0-0--0-0-0--|
D||----2--2222---3-3--------2--2222---0-0--0-0-0--|
A||----0--0000---3-3--------3--3333---2-2---------|
E||--------------1-1------------------3-3---------|

guest
You may want to rate the tab now too:
select rating
Wanna post a correction for this tab? Suggest correction