Oops, an error
Loading. Please wait.

Dream Tab

version 2
version 2

Whole song

22,632 views 6 this week
no commentswrite comment
1 2 3 4 5
excellent!
x 8
add to favorites
launch autoscroll
font size
0
reset
how to read this tab
guitar tuner
Tab Pro tools
  • play this tab
  • loop segment
  • change instrument
  • show fretboard
  • metronome
×
Best way to learn
"Dream"
Autoscroll
slow
fast
+/-
esc
set tempo
stop
Contributor
Capo
2nd fret
Priscilla Ahn - Dream

Notes: 1) She's a talented musician and songwriter, but I would not copy her
          right-hand technique. Play low-E and A string notes with thumb,
          G string notes with index, B string notes with middle, and high-E
          string notes with ring fingers of the right hand.
       2) For easier printing, copy and paste this tab into your favourite
          word processor and set the text to 10- or 11-point MS Gothic.

Capo 2

** Intro **
                 (4x)
||-------------------||
||----1---1---1---1--||
||*--0---0---0---0--*||
||*-----------------*||
||--3---3---3---3----||
||-------------------||

** Verse 1 **

||------------------|-----------------|-----------------|------------------||
||----1---1---1---0-|---0---0---0---0-|---1---1---1---1-|---1---1---1---0--||
||*--0---0---0---0--|--0---0---0---0--|--0---0---0---0--|--2---2---2---2--*||
||*-----------------|-----------------|-----------------|-----------------*||
||--3---3---3---3---|-----------------|-0---0---0---0---|------------------||
||------------------|-1---1---1---1---|-----------------|-1---1---1---1----||
                                                                             
** Chorus **

-----------------|-----------------|-----------------|-----------------|
---1---1---1---1-|---0---0---0---0-|---1---1---1---1-|---1---0---0---0-|
--0---0---0---0--|--0---0---0---0--|--2---2---2---2--|--0---0---0---0--|
-----------------|-----------------|-----------------|-----------------|
-3---3---3---3---|-----------------|-----------------|-3---3-----------|
-----------------|-0---0---0---0---|-1---1---1---1---|---------3---3---|

-------1-------1-|-------1---------|
---1-------1-----|---1-------1---0-|
--2---2---2---2--|--2---2---2---2--|
-----------------|-----------------|
-----------------|-----------------|
-1---1---1---1---|-1---1---1---1---|

** Verse 2 **
     Play exactly as in Verse 1

** Repeat Chorus **

** Bridge **
                                                                        (4x)
||------------------|-----------------|-----------------|------------------||
||----1---1---1---0-|---0---0---0---0-|---1---1---1---0-|---0---0---0---0--||
||*--0---0---0---0--|--0---0---0---0--|--0---0---0---0--|--0---0---0---0--*||
||*-----------------|-----------------|-----------------|-----------------*||
||--3---3---3---3---|-----------------|-0---0---0---0---|------------------||
||------------------|-3---3---3---3---|-----------------|-1---1---1---1----||

** Verse 3 **
     Play Verse figure once only, then play:

-----------------|-----------------|-0---------|-----------|------------|
---1---1---1---1-|---0---0---0---0-|-1---------|-----------|------------|
--0---0---0---0--|--0---0---0---0--|-0-x12-----|-2-x12-----|-4-x12------|
-----------------|-----------------|-2---------|-0---------|-5----------|
-3---3---3---3---|-----------------|-0---------|-3---------|-5----------|
-----------------|-1---1---1---1---|-----------|-1---------|-3----------|
                                                                                 
|-----------------|-----------------|-----------------|
|---1---1---1---1-|---1---1---1---1-|---1---1---1---1-|
|--0---0---0---0--|--2---2---2---2--|--2---2---2---2--|
|-----------------|-----------------|-----------------|
|-0---0---0---0---|-----------------|-----------------|
|-----------------|-1---1---1---1---|-1---1---1---1---|

** Coda **
     Play Bridge figure 3 times, then play:

-----------------|---3-------3-----|-------1---------|-0----------|
---1---1---1---0-|-------0---------|---1-------1-----|-1----------|
--0---0---0---0--|--0---0---0---0--|--2---2---2----2-|-0----------|
-----------------|-----------------|--------------3--|-2----------|
-3---3---3---3---|-----------------|-----------------|-3----------|
-----------------|-3---3---3---3-0-|-1---1---1---1---|-0----------|
comments
print report bad tab
I want to post or [tab]
guest
You may want to rate the tab now too:
select rating
Please do not post tabs as comments. Select "correction" instead!