Oops, an error
Loading. Please wait.

Lost Tab

510 views 1 this week
no commentswrite comment
1 2 3 4 5
please rate
add to favorites
launch autoscroll
font size
0
reset
how to read this tab
guitar tuner
Autoscroll
slow
fast
+/-
esc
set tempo
stop
Help us to improve Ultimate-Guitar.com Take our survey!
×
Author
-------------------------------------------------------------------------------
                             Lost - Priscilla Ahn
-------------------------------------------------------------------------------
Tabbed by: Roger of Rohan
E-mail: roger at rogerhub.com

Tuning: Standard

[Verse]

... I am lost

e|---------|---------|---------|---------|---------|---------|---------|---------|
B|---------|---------|---------|---------|---------|---------|---------|---------|
G|-------0-|-------0-|-------0-|-------0-|-------0-|-------0-|-------0-|-------0-|
D|-----0---|-----0---|-----0---|-----0---|-----4---|-----4---|-----4---|-----4---|
A|---9-----|---9-----|---9-----|---9-----|---4-----|---4-----|---4-----|---4-----|
E|-7-------|-7-------|-7-------|-7-------|-5-------|-5-------|-5-------|-5-------|

                                    in the ocean...

e|---------|---------|---------|---------|---------|---------|---------|---------|
B|---------|---------|---------|---------|-------2-|-------2-|-------2-|-------0-|
G|-------0-|-------0-|-------0-|-------0-|---------|-----3---|-----3---|-----3---|
D|-----0---|-----0---|-----0---|-----0---|-----4---|---------|---------|---------|
A|---5-----|---5-----|---5-----|---5-----|---4-----|---4-----|---4-----|---4-----|
E|-3-------|-3-------|-3-------|-3-------|-2-------|-2-------|-2-------|-2-------|

  Far away,                         from home...

[Repeat Verse]

  Carry me,                         across the sea...

  To a place,                       I've known...    'Cause I don't...

[Chorus]

(Strum or pluck 3)
e|------------|------------|------------|------------|
B|------------|------------|------------|------------|
G|------------|------------|------------|------------|
D|-2----------|------------|-7----------|-4----------|
A|-2----------|------------|-7----------|-4----------|
E|-0----------|------------|-5----------|-6----------|

         like it here,  anymore...            No, I don't...

e|------------|------------|
B|------------|------------|
G|------------|------------|
D|-5----------|------------|
A|-5----------|------------|
E|-3----------|------------|

         like it here, anymore.....

[Repeat Verse]

                                    anymore...

                                                                        (silence)

[Repeat Verse]

  Lock me in...                     Close the door,

  Oxygen...                         Falls apart,

[Repeat Verse]

  Spiders crawl...                  Moutains fall,

  Every evening...                  Sirens call,    And I don't...

[Chorus II]

(Strum or pluck 3)
e|------------|------------|------------|------------|
B|------------|------------|------------|------------|
G|------------|------------|------------|------------|
D|-2----------|------------|-7----------|-4----------|
A|-2----------|------------|-7----------|-4----------|
E|-0----------|------------|-5----------|-6----------|

         like it here,  anymore...            And I don't...

e|---------|---------|---------|---------|
B|-------3-|-------3-|-------3-|-------3-|
G|---------|---------|---------|---------|
D|-----5---|-----5---|-----5---|-----5---|
A|---5-----|---5-----|---5-----|---5-----|
E|-3-------|-3-------|-3-------|-3-------|

         like it here, anymore.....

[Bridge]

(Strum)
e|------------|------------|------------|------------|
B|------------|------------|------------|------------|
G|------------|------------|------------|------------|
D|-9----------|------------|-7----------|------------|
A|-9----------|------------|-7----------|------------|
E|-7----------|------------|-5----------|------------|

(Strum)
e|------------|------------|------------|------------|
B|------------|------------|------------|------------|
G|------------|------------|(3)---------|------------|
D|-5----------|------------|-4----------|------------|
A|-5----------|------------|-4----------|------------|
E|-3----------|------------|-2----------|------------|

[Repeat Bridge]

  Ahh...                   (etc.. noises)

  Ahh...                    ...

[Bridge II]

e|------------|------------|------------|------------|
B|------------|------------|------------|------------|
G|------------|------------|------------|(3)---------|
D|-9----------|------------|-2----------|-4----------|
A|-9----------|------------|-2----------|-4----------|
E|-7----------|------------|-0----------|-2----------|

  Doo do do do...

e|------------|------------|------------|------------|
B|------------|------------|------------|------------|
G|------------|------------|------------|(3)---------|
D|-9----------|------------|-2----------|-4----------|
A|-9----------|------------|-2----------|-4----------|
E|-7----------|------------|-0----------|-2----------|

  Doo do do do...                       And I don't...

[Outro]

e|------------|------------|------------|------------|
B|-0----------|------------|---(10)-----|-(8)(8)-----|
G|-0----------|------------|-(9)-(11)---|------(6)---|
D|-2----------|------------|-7----------|-4----------|
A|-2----------|------------|-7----------|-4----------|
E|-0----------|------------|-5----------|-6----------|

         like it here,  anymore...            No I don't...

e|(7)------|---------|---------|---------|------------|------------|
B|(8)----3-|-------3-|-------3-|-------3-|------------|------------|
G|---------|---------|---------|---------|------------|------------|
D|(9)--5---|-----5---|-----5---|-----5---|-7----------|-4----------|
A|---5-----|---5-----|---5-----|---5-----|-7----------|-4----------|
E|-3-------|-3-------|-3-------|-3-------|-5----------|-6----------|

         like it here,  anymore...                              No I don't...

e|---------|---------|---------|---------|---------|---------|
B|-------0-|---------|---------|---------|-------2-|-------2-|
G|---------|---------|-------0-|---------|-----2---|-----2---|
D|-----2---|-----2---|-----2---|-----2---|---2-----|---2-----|
A|---2-----|---2-----|---2-----|---2-----|-0-------|-0-------|
E|-0-------|-0-------|-0-------|-0-------|---------|---------|

         like it here,  anymore.

e|---------|---------|---------------|
B|---------|---------|-3-------------|
G|-------6-|---------|-4-------------|
D|-----4---|-----4---|-4-------------|
A|---4-----|---4-----|-2-------------|
E|-6-------|-6-------|---------------|


************************************

 (?) Second guitar -- optional

************************************
Suggest correction
Give kudos to tab author, rate the tab!
1 2 3 4 5
comments
print report bad tab
guest
You may want to rate the tab now too:
select rating
Wanna post a correction for this tab? Suggest correction