Oops, an error
Loading. Please wait.

Spaceship Superstar Bass Tab

837 views 6 this week
no commentswrite comment
1 2 3 4 5
3 more votes to show rating
add to favorites
launch autoscroll
font size
0
reset
guitar tuner
Autoscroll
slow
fast
+/-
esc
set tempo
stop
Help us to improve Ultimate-Guitar.com Take our survey!
×
Difficulty
novice
Tuning: Standard

intro:(:46)
G|----------------|
D|--7---------7---|
A|----------------|
E|--5---------5---|

verse:(:59)
G|-------------------------------------------------------------------------|
D|-------------------------------------------------------------------------|
A|-------------------------------------------------------------------------|
E|55555555555555555555555555555555555555555555555555555555555555555|

G|-------------------------------------------------------------------------|
D|-------------------------------------------------------------------------|
A|-------------------------------------------------------------------------|
E|7777777777777777777777777777777777777777777777777777777777777|


chorus:(1:26)
G|-------------------------------------------------------------------------|
D|--9-----9----------------------------------------------------------------|
A|-------------------------------------------------------------------------|
             (1:39)
E|--7-----7--77777777777777777777777777777777777777777777777777777777777777|

G|-------------------------------------------------------------------------|
D|-------------------------------------------------------------------------|
A|-------------------------------------------------------------------------|
E|5555555555555555555555555555555555555555555555555555555555555555555555555|


verse:(2:05)
G|-------------------------------------------------------------------------|
D|-------------------------------------------------------------------------|
A|-------------------------------------------------------------------------|
E|5555555555555555555555555555555555555555555555555555555555555555555555555|

G|-------------------------------------------------------------------------|
D|-------------------------------------------------------------------------|
A|-------------------------------------------------------------------------|
E|7777777777777777777777777777777777777777777777777777777777777777777777777|

chorus:(2:32)
G|-------------------------------------------------------------------------|
D|--9-----9----------------------------------------------------------------|
A--------------------------------------------------------------------------|
             (2:45)
E|--7-----7--77777777777777777777777777777777777777777777777777777777777777|

G|-------------------------------------------------------------------------|
D|-------------------------------------------------------------------------|
A|-------------------------------------------------------------------------|
E|5555555555555555555555555555555555555555555555555555555555555555555555555|

solo:(3:12)
G|-------------------------------------------------------------------------|
D|-------------------------------------------------------------------------|
A|-------------------------------------------------------------------------|
E|7777777777777777777777777777777777777777777777777777777777777777777777777|

G|-------------------------------------------------------------------------|
D|-------------------------------------------------------------------------|
A|-------------------------------------------------------------------------|(3:25)
E|999999999999999999999999999999999999999999999999999999999999999999999999|

G|-------------------------------------------------------------------------------------------|
D|-------------------------------------------------------------------------------------------|
A|-------------------------------------------------------------------------(3:39-------------|
E|10-10-10-10-10-10-10-10-10-10-10-10-10-10-10-10-10-10-10-10-10-10-10-10-10-10-10-10-10-10--|

G|-------------------------------------------------------------------------|
D|-------------------------------------------------------------------------|
A|-------------------------------------------------------------------------|(3:52)
E|12~|let ring.
Suggest correction
Give kudos to tab author, rate the tab!
1 2 3 4 5
comments
print report bad tab
guest
You may want to rate the tab now too:
select rating
Wanna post a correction for this tab? Suggest correction