Oops, an error
Loading. Please wait.

Bulleya - Ae Dil Hai Mushkil chords

version 1
version 1

Whole song

  • 95% accurate chords of the song in Dm.

Interactive

by Pritam
33,715 views 477 this week
4 commentsread comments
1 2 3 4 5
x 20
add to favorites
×
Save as Personal and add changes to this tab that will be seen only by you. Learn more ›
×
You can save this tab as Personal to edit and correct it or add notes. All changes will be seen only by you. Learn more »
launch autoscroll
font size
0
reset
transpose
0
reset
display chords
guitar tuner
edit
Autoscroll
slow
fast
+/-
esc
set tempo
stop
Author
Difficulty
Strumming
There is no strumming pattern for this song yet. and get +5 IQ
Song: Bulleya
Movie: Ae Dil Hai Mushkil (2016)
Singer: Amit Mishra, Shilpa Rao
Lyrics: Amitabh Bhattacharya
Music: Pritam

[Intro]

e|------------------|------------------|------------------|------------------|
B|----6-5-6-8-6-5---|------------------|----6-5-6-8-6-5---|------------------|
G|--7-------------5-|-7----------------|----------------7-|------------------|
D|------------------|------------------|--8---------------|-8----------------| x2
A|------------------|------------------|------------------|------------------|
E|------------------|------------------|------------------|------------------|


e|------------------|------------------|------------------|------------------|
B|----6-5---8-6-5---|---6-5---8-6-5----|----6-5---8-6-5---|----6-5---8-6-5---|
G|--7-----5-------5-|--7-----5-------5-|--------5-------5-|--------5-------5-|
D|------------------|------------------|--8---------------|--8---------------| x2
A|------------------|------------------|------------------|------------------|
E|------------------|------------------|------------------|------------------|

[INTRO]
Dm  F  Bb  Gm  Dm  F  Bb  Gm


[VERSE]
     Dm         F           Bb     Gm
Meri rooh ka parinda phadphadaye
      Dm           F            Bb      Gm
Lekin sukoon ka jazeera mil na paaye
      Eb
Ve ki karaan..
      A
Ve ki karaan..

   Dm         F          Bb      Gm
Ik baar ko tajalli toh dikha de
        Dm            F        Bb       Gm
Jhoothi sahi magar tasalli to dila de
      Eb
Ve ki karaan..
      A
Ve ki karaan..


[CHORUS]
            Dm            F
Raanjhan de yaar Bulleya
        Bb            Gm
Sunle pukaar Bulleya
          A              C
Tu hi toh yaar Bulleya
        Bb            Dm
Murshid mera, Murshid mera
       Dm          F
Tera mukaam kamle
          Bb           Gm
Sarhad ke paar Bulleya
        A              C
Parvardigar Bulleya
       Bb            A
Haafiz tera, Murshid mera  X2


[INSTRUMENTAL]
Dm   F   Bb   Gm  x4


[VERSE]
          Dm           F          F           C
Main taan gul se lipti titli ki tarah muhajir hoon
   Bb               C               F
Ek pal ko thehroon, pal mein udd jaaun
            Dm
Ve main tan hoon pagdandi
F            Dm          Am
labhdi ae jo raah jannat ki
   Bb              Bb           F
Tu mude jahan main saath mud jaaun
     Dm           F           Bb      Gm
Tere kaarvan mein shamil hona chahun
    Dm                 F           Bb     Gm
Kamiya taraash ke main kaabil hona chahun
      Eb
Ve ki karaan..
      A
Ve ki karaan..


[CHORUS]
            Dm            F
Raanjhan de yaar Bulleya
        Bb            Gm
Sunle pukaar Bulleya
          A              C
Tu hi toh yaar Bulleya
        Bb            Dm
Murshid mera, Murshid mera
       Dm           F
Tera mukaam kamle
          Bb           Gm
Sarhad ke paar Bulleya
        A              C
Parvardigar Bulleya
       Bb             A
Haafiz tera, Murshid mera

            
            
Suggest correction
Creating personal tab
Creating personal tab
You can edit any tab online and save it as your Personal.

You can edit, replace or remove any tab part or add personal notes – all changes will be seen only by you.

Personal tabs can be accessed anytime from any device, even offline.
Learn more »
comments
print report bad tab
4 comments total. Showing first comments.
0 reply
akash777ks 10 Oct 15, 2016 09:50 AM

perfect ...!!!

0 reply
anjaliani66 10 Oct 22, 2016 05:00 AM

awsm!!!!!

0 reply
varunmusician 10 Jan 24, 2017 02:37 AM

how about

dm f bb dm
Meri rooh ka parinda phadphadaye

guest
You may want to rate the tab now too:
select rating
Wanna post a correction for this tab? Suggest correction