Oops, an error
Loading. Please wait.

Bulleya - Ae Dil Hai Mushkil Chords

7,852 views 870 this week
2 commentsread comments
1 2 3 4 5
x 5
add to favorites
launch autoscroll
font size
0
reset
transpose
0
reset
display chords
guitar tuner
Autoscroll
slow
fast
+/-
esc
set tempo
stop
Help us to improve Ultimate-Guitar.com Take our survey!
×
Author
Difficulty
intermediate
About this tab version
Includes tab for the electric guitar intro. Was this info helpful? Yes No
Song: Bulleya
Movie: Ae Dil Hai Mushkil (2016)
Singer: Amit Mishra, Shilpa Rao
Lyrics: Amitabh Bhattacharya
Music: Pritam

[Intro]

e|------------------|------------------|------------------|------------------|
B|----6-5---8-6-5---|------------------|----6-5---8-6-5---|------------------|
G|--7-----5-------5-|-7----------------|--------5-------7-|------------------|
D|------------------|------------------|--8---------------|-8----------------| x2
A|------------------|------------------|------------------|------------------|
E|------------------|------------------|------------------|------------------|


e|------------------|------------------|------------------|------------------|
B|----6-5---8-6-5---|---6-5---8-6-5----|----6-5---8-6-5---|----6-5---8-6-5---|
G|--7-----5-------5-|--7-----5-------5-|--------5-------5-|--------5-------5-|
D|------------------|------------------|--8---------------|--8---------------| x2
A|------------------|------------------|------------------|------------------|
E|------------------|------------------|------------------|------------------|

[INTRO]
Dm  F  Bb  Gm  Dm  F  Bb  Gm


[VERSE]
     Dm         F           Bb     Gm
Meri rooh ka parinda phadphadaye
      Dm           F            Bb      Gm
Lekin sukoon ka jazeera mil na paaye
      Eb
Ve ki karaan..
      A
Ve ki karaan..

   Dm         F          Bb      Gm
Ik baar ko tajalli toh dikha de
        Dm            F        Bb       Gm
Jhoothi sahi magar tasalli to dila de
      Eb
Ve ki karaan..
      A
Ve ki karaan..


[CHORUS]
            Dm            F
Raanjhan de yaar Bulleya
        Bb            Gm
Sunle pukaar Bulleya
          A              C
Tu hi toh yaar Bulleya
        Bb            Dm
Murshid mera, Murshid mera
       Dm          F
Tera mukaam kamle
          Bb           Gm
Sarhad ke paar Bulleya
        A              C
Parvardigar Bulleya
       Bb            A
Haafiz tera, Murshid mera  X2


[INSTRUMENTAL]
Dm   F   Bb   Gm  x4


[VERSE]
          Dm           F          F           C
Main taan gul se lipti titli ki tarah muhajir hoon
   Bb               C               F
Ek pal ko thehroon, pal mein udd jaaun
            Dm
Ve main tan hoon pagdandi
F            Dm          Am
labhdi ae jo raah jannat ki
   Bb              Bb           F
Tu mude jahan main saath mud jaaun
     Dm           F           Bb      Gm
Tere kaarvan mein shamil hona chahun
    Dm                 F           Bb     Gm
Kamiya taraash ke main kaabil hona chahun
      Eb
Ve ki karaan..
      A
Ve ki karaan..


[CHORUS]
            Dm            F
Raanjhan de yaar Bulleya
        Bb            Gm
Sunle pukaar Bulleya
          A              C
Tu hi toh yaar Bulleya
        Bb            Dm
Murshid mera, Murshid mera
       Dm           F
Tera mukaam kamle
          Bb           Gm
Sarhad ke paar Bulleya
        A              C
Parvardigar Bulleya
       Bb             A
Haafiz tera, Murshid mera
Suggest correction
comments
print report bad tab
2 comments total.
0 reply
akash777ks 10 Oct 15, 2016 01:50 PM

perfect ...!!!

0 reply
anjaliani66 10 Oct 22, 2016 09:00 AM

awsm!!!!!

guest
You may want to rate the tab now too:
select rating
Wanna post a correction for this tab? Suggest correction