Oops, an error
Loading. Please wait.

Walk Away tab

version 1
version 1

Whole song

Interactive

556 views 1 this week
2 commentsread comments
1 2 3 4 5
x 3
add to favorites
×
Save as Personal and add changes to this tab that will be seen only by you. Learn more ›
×
You can save this tab as Personal to edit and correct it or add notes. All changes will be seen only by you. Learn more »
launch autoscroll
font size
0
reset
how to read this tab
guitar tuner
edit
Autoscroll
slow
fast
+/-
esc
set tempo
stop
Author
Difficulty
-------------------------------------------------------------------------------
                             walk away - pro-pain
-------------------------------------------------------------------------------
Tabbed by: sean crow
Email: die_for_nothing_323@hotmail.com

Tuning:drop d (DADGBe)    i find that the rythm guitar for pro-pain songs 
                          are easy as hell, so if u want one tabbin email 
                          me!!!  i dont ever tab solos ('cos i can't)!!

e|----------------------------------------|
B|----------------------------------------|
G|----------------------------------------|
D|-3-2--0-3-2--00000000-----3-2-0>--------|
A|-3-2--0-3-2--00000000-X3--3-2-0>--------|
D|-3-2--0-3-2--00000000-----3-2-0>--------|
               ........
e|-----------------------------------------|
B|-----------------------------------------|
G|-----------------------------------------|
D|-2-----55-00-77-22222-----7\-----pause---|
A|-2-X16-55-00-77-22222-X3--7\-----pause---|
D|-2-----55-00-77-22222-----7\-----pause---|

e|---------------------------------------------|
B|---------------------------------------------|
G|---------------------------------------------|
D|-7-2222222222222222--5-0000000000000000------|
A|-7-2222222222222222--5-0000000000000000-X2---|
D|-7-2222222222222222--5-0000000000000000------|

e|-----------------------------------|
B|-----------------------------------|
G|-----------------------------------|
D|-3-2--0-3-2--00000000-----3-2-0>---|
A|-3-2--0-3-2--00000000-X3--3-2-0>---|
D|-3-2--0-3-2--00000000-----3-2-0>---|
               ........
e|-----------------------------------------|
B|-----------------------------------------|
G|-----------------------------------------|
D|-2-----55-00-77-22222-----7\-----pause---|
A|-2-X16-55-00-77-22222-X3--7\-----pause---|
D|-2-----55-00-77-22222-----7\-----pause---|

e|---------------------------------------------|
B|---------------------------------------------|
G|---------------------------------------------|
D|-7-2222222222222222--5-0000000000000000------|
A|-7-2222222222222222--5-0000000000000000-X2---|
D|-7-2222222222222222--5-0000000000000000------|

e|-----------------------------------|
B|-----------------------------------|
G|-----------------------------------|
D|-3-2--0-3-2--00000000-----3-2-0>---|
A|-3-2--0-3-2--00000000-X3--3-2-0>---|
D|-3-2--0-3-2--00000000-----3-2-0>---|
               ........
        
          RYTHM FOR THE SOLO!!
e|-----------------------------------------|
B|-----------------------------------------|
G|-----------------------------------------|
D|-2-----55-00-77-22222-----7\-----pause---|
A|-2-X16-55-00-77-22222-X3--7\-----pause---|
D|-2-----55-00-77-22222-----7\-----pause---|

e|---------------------------------------------|
B|---------------------------------------------|
G|---------------------------------------------|
D|-7-2222222222222222--5-0000000000000000------| END OF SOLO
A|-7-2222222222222222--5-0000000000000000-X4---|
D|-7-2222222222222222--5-0000000000000000------|

e|-----------------------------------|
B|-----------------------------------|
G|-----------------------------------|
D|-3-2--0-3-2--00000000-----3-2-0>---|   END OF SONG!!!!!!!
A|-3-2--0-3-2--00000000-X3--3-2-0>---|
D|-3-2--0-3-2--00000000-----3-2-0>---|
               ........


       . = palm mute
       > = sustain note
       \ = slide down
 (pause) = pause

            
            
Suggest correction
Creating personal tab
Creating personal tab
You can edit any tab online and save it as your Personal.

You can edit, replace or remove any tab part or add personal notes – all changes will be seen only by you.

Personal tabs can be accessed anytime from any device, even offline.
Learn more »
Give kudos to tab author, rate the tab!
1 2 3 4 5
comments
print report bad tab
2 comments total.
0 reply
jamtohell 10 Sep 13, 2006 12:34 PM

i think this is an amazin tab seanius,,, a solo might have been better but still perfect

0 reply
PelzR 3,675 Sep 19, 2008 12:53 PM

I think the intro riff should be played like this:

e|----------------------------------------|
B|----------------------------------------|
G|----------------------------------------|
D|-2-0--0-3-2--00000000-----2-0-2>--------|
A|-2-0--0-3-2--00000000-X3--2-0-2>--------|
D|-2-0--0-3-2--00000000-----2-0-2>--------|

Otherwise, everything is perfect. Good work. In the Guitar Pro version I have tabbed the solo (though it's not perfect).

guest
You may want to rate the tab now too:
select rating
Wanna post a correction for this tab? Suggest correction