Oops, an error
Loading. Please wait.

Shake Your Blood Bass

version 1
version 1

Whole song

Interactive

by Probot
3,291 views 1 this week
no commentswrite comment
1 2 3 4 5
3 more votes to show rating
add to favorites
launch autoscroll
font size
0
reset
guitar tuner
×
Best way to learn
"Shake Your Blood"
Autoscroll
slow
fast
+/-
esc
set tempo
stop
Author
Title-Shake Your Blood
Artist-Probot ft. Lemmy
Bassist-Lemmy

This is my first tab and my first attempt to I doubt it will be 100% but it comes very 
so figure out what your unsure on...

Intro pt 1
G|------------------|
D|------------------|
A|-5-5-5—5-5-5------|
E|--5-5-5—5-5-5-----|

Intro pt 2/verse
G|-----------------|
D|-----------------|
A|---------------5-|
E|-777777-5h7------|

Verse-2nd version
G|-------------------------------------|
D|-------------------------------------|
A|-----------------------------7-5-----|
E|-777777-7777--777777-----5-----------|

G|-------------------------------------|
D|-------------------------------------|
A|-------------------------------------|
E|-777777-7777--777777-575-------------|

G|-------------------------------------|
D|-------------------------------------|
A|----------------------------5-7------|
E|-777777-7775--777777----5------------|

G|-------------------------------------|
D|-------------------------------------|
A|-------------------------------------|
E|-777777-7777--777777-575-------------|

Chorus
G|----------------------------------------------------------------------|
D|----------------------------------------------------------------------|
A|-5-5-5—7-7-7--------5--7-5----5-5-5--7-7-7-----5----7p5---------------|
E|---------------------5-7--------7------------------5h7--7------77-----|

Post-Chorus
G|-------------------------|
D|-------------------------|
A|----------------5-5-5----|
E|-777777-5h7--5-5-5-------|

Bridge pt 1
G|-------------------------------|
D|-------------------------------|
A|----------777777--5-5-5--------|
E|-777777------------5-5-5-------|

Bridge pt 2
G|---------------------------------------|
D|---------------------------------------|
A|----------777777--5-5-5--5-5-5---------|
E|-777777------------5-5-5—5-5-5---------|

Solo (I may be a bit ambitious at trying to tab this, but I know some of it is right...)
Pt 1
G|--------------------------------------------|
D|--------------------------------------------|
A|--------7/99999-----------------------------|
E|-77777-----------5h77777-5h77777------------|
Pt 2
G|-----------------------|
D|-7h997h9-7h997h9-------|
A|-----------------------|
E|-----------------------|

Pt3
G|-------------------------------------------------------------------------------|
D|-7h997h9-7h997h9-7h997h9-7h997h9—987-99887-987-7-------------------------------|
A|----------------------------------------------------------------------9-7-5----|
E|-------------------------------------------------------------------------------|
Outro
G|---------------------|
D|---------------------|
A|-5-0-5-0-5-0---------|
E|---------------7////-|


Order of play:
Intro pt1 x1
Intro pt2 x8
Verse x8
Chorus x1
Post-Chorus x1
Verse x8
Chorus x1
Verse x2
Bridge pt1 x3
Bridge pt2 x1
Solo pt 1 x1
Solo pt 2 x3
Solo pt 3 x1
Verse (2nd version) x1
Chorus x1
Verse x1
Outro x1
Suggest correction
Give kudos to tab author, rate the tab!
1 2 3 4 5
comments
print report bad tab
guest
You may want to rate the tab now too:
select rating
Wanna post a correction for this tab? Suggest correction