Oops, an error
Loading. Please wait.

Destroyers Of The Faith Tab

137 views 1 this week
no commentswrite comment
1 2 3 4 5
1 last vote to show rating
add to favorites
launch autoscroll
font size
0
reset
how to read this tab
guitar tuner
Autoscroll
slow
fast
+/-
esc
set tempo
stop
Help us to improve Ultimate-Guitar.com Take our survey!
×
------------------------------------------------------------------------------
Song: Destroyers of the Faith
Band: Procession
Album: Destroyers of the Faith
Tabbed by: TrollFaceJesus
E-mail: trollfacejesus@gmail.com


Hey everyone, this is my tab for this song, and for the most part I think it 
sounds pretty awesome. All of the rhythm sections in the song are here, but I 
didn't tab out the solos. Hopefully everything in this tab is accurate, and 
that you guys find it to be helpful! If you have any comments, questions, or 
corrections to point out, please feel free to leave a message here, or to send 
me an email! :D


Tuning: Eb


Riff 1
|---------------------------------------------|
|---------------------------------------------|
|---------------------------------------------| x1
|--2----2----2----3-2-0--2-0----0-------------|
|--2----2----2---------------2----2-0--2-0----|
|--0----0----0-----------------------------3--|


Riff 2a
|--------------------------------------------------------------|
|--------------------------------------------------------------|
|-----------------5------4----------------------7------5-------| x1
|--2------2-------5-5555-4-4444--2------2-------7-7777-5-5555--|
|--2-2222-2-2222--3-3333-2-2222--2-2222-2-2222--5-5555-3-3333--|
|--0-0000-0-0000-----------------0-0000-0-0000-----------------|


Riff 2b
|--------------------------------------------------------------|
|--------------------------------------------------------------|
|-----------------5------4-------------------------------------| x1
|--2------2-------5-5555-4-4444--2------2-------5--------------|
|--2-2222-2-2222--3-3333-2-2222--2-2222-2-2222--5-5555-333333--|
|--0-0000-0-0000-----------------0-0000-0-0000--3-3333-111111--|


Riff 2a x 1

Riff 2b x 1


Riff 3a
|----------------------------|
|----------------------------|
|----------------------------| x3
|----------------------------|
|--3-2-0-2--------------0----|
|-------------3-2-0-2-3---2--|


Riff 3b
|-------------------------------------------|
|-------------------------------------------|
|----------------------------/101010101010--| x1
|------------------------3---/101010101010--|
|-3-2-0-2--------------0-3---/8-8-8-8-8-8---|
|------------3-2-0-2-3---1------------------|


Riff 2a x 1

Riff 2b x 1

Riff 2a x 1

Riff 2b x 1

Riff 3a x 3

Riff 3b x 1

Riff 2a x 1

Riff 2b x 1

Riff 2a x 1

Riff 2b x 1


Riff 4
|----------------------------------------|
|----------------------------------------|
|--4--------------5----------------------| x4
|--4-------0------5---------------5-4----|
|--2--2-2---h3p2--3--3-3-3-3--3h5-----5--|
|----------------------------------------|
      . .            . . . .

[Note: I'm not actually 100% sure about this 
part, but I think this sounds fairly close to 
how they play it in the song. You can mess 
around with this to get the sound that you 
want though.]


Riff 5a
|--------------------------------------------------------------|
|--------------------------------------------------------------|
|-------------7---7--------------------------------------------| x1
|--2----------7---7--2------2--------------------0-------------|
|--2----------5---5--2-2222-2-2222--------0h2h3---h3p2--0------|
|--0--000000---------0-0000-0-0000--0h2h3----------------h3p2--|
      ......

Riff 5b
|------------------------------------------------|
|------------------------------------------------|
|-------------7---7--4-44-44-4444-544444-544444--| x1
|--2----------7---7--4-44-44-4444-544444-544444--|
|--2----------5---5--2-22-22-2222-322222-322222--|
|--0--000000-------------------------------------|
      ......

Riff 5a x 1

Riff 5b x 1

Riff 5a x 1

Riff 5b x 1

Riff 5a x 1


Riff 5c
|-------------------|
|-------------------|
|-------------7--5--| x1
|--2----------7--5--|
|--2----------5--3--|
|--0--000000--------|
      ......

Riff 6a
|------------------------------------------------------|
|------------------------------------------------------|
|--4---4-5-7-4---4-5-7-2--5--4---4-5-7-4---4-5-7-2--5--| x1
|--4---4-5-7-4---4-5-7-2--5--4---4-5-7-4---4-5-7-2--5--|
|--2---2-3-5-2---2-3-5-0--3--2---2-3-5-2---2-3-5-0--3--|
|------------------------------------------------------|


Riff 6b
|------------------------------------------------------|
|------------------------------------------------------|
|------------------------------------------------------| x1
|--4---4-5-7-4---4-5-7-2--5--4---4-5-7-4---4-5-7-2--5--|
|--4---4-5-7-4---4-5-7-2--5--4---4-5-7-4---4-5-7-2--5--|
|--2---2-3-5-2---2-3-5-0--3--2---2-3-5-2---2-3-5-0--3--|


Riff 6a x 1

Riff 6b x 1

Riff 6a x 1

Riff 6b x 1

Riff 6a x 1

Riff 6b x 1


Riff 7
|-----|
|-----|
|--4--| x1
|--4--|
|--2--|
|-----|


Riff 2a x 1

Riff 2b x 1

Riff 2a x 1

Riff 2b x 1

Riff 2a x 1

Riff 2b x 1

Riff 2a x 1

Riff 2b x 1


Riff 8
|--------------------------|
|--------------------------|
|--------------------------| x1
|--------------------------|
|--3-2-0-2--------------0--|
|-------------3-2-0-2-3----|


|-----|
|-----|
|-----| Song ends on Eb.
|--2--|
|--2--|
|--0--|


And that's it!


************************************

| /   slide up
| \   slide down
| h   hammer-on
| p   pull-off
| v   vibrato
| +   harmonic
| ·   Mute note
| b   Bend
| pb  Pre-bend
| br  Bend release
| pbr Pre-bend release
| brb Bend release bend

************************************
Suggest correction
Give kudos to tab author, rate the tab!
1 2 3 4 5
comments
print report bad tab
guest
You may want to rate the tab now too:
select rating
Wanna post a correction for this tab? Suggest correction