Oops, an error
Loading. Please wait.

A Shadow On Me Tab

version 1
version 1

Whole song

Interactive

556 views 1 this week
4 commentsread comments
1 2 3 4 5
accurate
x 3
add to favorites
launch autoscroll
font size
0
reset
how to read this tab
guitar tuner
Tab Pro tools
  • play this tab
  • loop segment
  • change instrument
  • show fretboard
  • metronome
×
Best way to learn
"A Shadow On Me"
Autoscroll
slow
fast
+/-
esc
set tempo
stop
Contributor
A Shadow On Me
by Project 86
c2004 Tooth and Nail

Drop D tuning

Intro/Verse riff

E------2---7---2-2------------------|
B--0-3---3---3------0-3-2-2-0-3-2-2-|
G-----------------------------------|
D-----------------------------------|
A-----------------------------------|
D-----------------------------------|

Pre-chorus

E----
B----
G----
D--9-
A--9-
D--9-

Chorus

E---------------------|
B---------------------|
G---------------2--4--|
D---4--2--0--2--2--4--|
A---4--2--0--2--0--2--|
D---4--2--0--2--------|

Bridge

E---------------------------------------|
B---------------------------------------|
G---------------------------------------|
D---0--2--4--0--2--4--0--2--4--0--2--9--|
A---0--2--4--0--2--4--0--2--4--0--2--9--|
D---0--2--4--0--2--4--0--2--4--0--2--9--|

Ending

E----------|
B----------|
G----------|
D--4-4-2-4-|
A--4-4-2-4-|
D--4-4-2-4-|

and there you go...
comments
We did not receive enough feedback on this tab! Please rate:
print report bad tab
1 2 3 4 5
4 comments total. Showing first comments.
0 reply
sxcountry wrote on May 24 2005, 12:00 am

the ending of the song is wrong on here its
D]-2-4-2-4
A]-2-4-2-4
D]-2-4-2-4
Sweet song though!

0 reply
Sintu wrote on July 21 2005, 12:00 am

Corrections
INTRO:
E--------------7-------------------------|
B--------7--------7----------------------|
G-----7-----7--------7-------------------|
D--9-------------------9\---4-7-6--4-7-6-|
A----------------------------------------|
D----------------------------------------|

CHORUS:
E---------------------------|
B-------------------------4-|
G---------------4--9------4-|
D---4--2--0--2--4--9-(OR)-2-|
A---4--2--0--2--2--7--------|
D---4--2--0--2--------------|
Otherwise, good tab.

0 reply
Guitarfabian wrote on June 19 2006, 05:08 pm

yeah thanks guys....and good tab man

I want to post or [tab]
guest
You may want to rate the tab now too:
select rating
Please do not post tabs as comments. Select "correction" instead!