Oops, an error
Loading. Please wait.

A Shadow On Me Tab

version 2
version 2

Whole song

Interactive

713 views 1 this week
2 commentsread comments
1 2 3 4 5
2 more votes to show rating
add to favorites
launch autoscroll
font size
0
reset
how to read this tab
guitar tuner
Autoscroll
slow
fast
+/-
esc
set tempo
stop
Help us to improve Ultimate-Guitar.com Take our survey!
×
----------------------------------------------------------------------------
                             A SHADOW ON ME - Project 86
----------------------------------------------------------------------------
Tabbed by: No 1

Tuning: Drop D (DADGBe)


Intro & Verse (w/ tremolo)

e|----------7-------------------------| <--- listen to song to figure out  
B|------------7---7-------------------|           when to play
G|---7-11-7-----7---------------------|       
D|-9------------------7-6-7---7-6-7---|       
A|------------------9-------9---------|       
D|------------------------------------|


Pre-Chorus (Acoustic or Clean)
     D5       E5       F#5
e|----------------------------------|
B|----------------------------------|
G|---7-7-7-7--9-9-9-9--11-11-11-11--|
D|---7-7-7-7--9-9-9-9--11-11-11-11--|
A|---5-5-5-5--7-7-7-7--9--9--9--9---|
D|----------------------------------|


Chorus (Distortion)
    F#5      E5       D5       E5
e|------------------------------------------|
B|------------------------------------------|
G|--6-6-6-6--4-4-4-4--2-2-2-2--4-4-4-4------|
D|--4-4-4-4--2-2-2-2--0-0-0-0--2-2-2-2------|
A|--4-4-4-4--2-2-2-2--0-0-0-0--2-2-2-2------|
D|--4-4-4-4--2-2-2-2--0-0-0-0--2-2-2-2------|
    "Can you see..."


Bridge (Distortion)                                       
    D5       E5       F#5                 D5       E5       F#5
e|-----------------------------|      e|---------------------------------|
B|-----------------------------|      B|---------------------------------|
G|-----------------------------|  or  G|--7-7-7-7--9-9-9-9--11-11-11-11--|
D|--0-0-0-0--2-2-2-2--4-4-4-4--|      D|--7-7-7-7--9-9-9-9--11-11-11-11--|
A|--0-0-0-0--2-2-2-2--4-4-4-4--|      A|--5-5-5-5--7-7-7-7--9--9--9--9---|
D|--0-0-0-0--2-2-2-2--4-4-4-4--|      D|---------------------------------|



| /  slide up
| \  slide down
| h  hammer-on
| p  pull-off
| ~  vibrato
| +  harmonic
| x  Mute note
============================================================================
Suggest correction
Give kudos to tab author, rate the tab!
1 2 3 4 5
comments
print report bad tab
2 comments total.
0 reply
godcore 10 Dec 24, 2006 01:11 AM

Good job, that's pretty dang close

0 reply
ssssam 67 Sep 21, 2008 04:41 PM

here's an easy/more accurate one


e|----------7--------------------------|
B|-----7------7---7\2-------2-1-2--2-1~|
G|---7----7-----7--------4-------------|
D|-9-----------------------------------|
A|-------------------------------------|
D|-------------------------------------|

guest
You may want to rate the tab now too:
select rating
Wanna post a correction for this tab? Suggest correction