Oops, an error
Loading. Please wait.

Bottom Feeder Tab

version 1
version 1

Whole song

Interactive

280 views 1 this week
no commentswrite comment
1 2 3 4 5
2 more votes to show rating
add to favorites
launch autoscroll
font size
0
reset
how to read this tab
guitar tuner
Autoscroll
slow
fast
+/-
esc
set tempo
stop
Help us to improve Ultimate-Guitar.com Take our survey!
×
-----------------------------------------------------------------------------
                                 Bottom Feeder
-----------------------------------------------------------------------------

Intro:
e|---------------------------------------------|
B|---------------------------------------------|
G|---------------------------------------------|
D|-2--0--2--0--3--0--------2--0--2--0--3--0----|
A|-3-----3-----3-----------3-----3-----3-------|
D|-3-----3-----3-----------3-----3-----3-------|

Verse 1:
e|-----------------------------------------------------------|
B|-----------------------------------------------------------|
G|-----------------------------------------------------------|
D|--0-2-3--2--2-0----2-0-----2--2-0----0-2-3-----0-----2-0---|X3
A|---------3-----------------3----------------3--------------|
D|---------3-------3-----33--3----------------3-----3--------|

Chorus 1:
(Distortion)
e|-------------------------------------------------------------------------|
B|-------------------------------------------------------------------------|
G|-------------------------------------------------------------------------|
D|-3--3--/7--\2-0--------3-3-3-3-5-5----3--3---/7---\2-0------3-3-3-3-5-5--|
A|-3--3--/7--\2-0---3-5-----------------3--3---/7---\2-0--3-5--------------|
D|-3--3--/7--\2-0-----------------------3--3---/7---\2-0-------------------|

e|-------------------------------------------------------------------------|
B|-------------------------------------------------------------------------|
G|-------------------------------------------------------------------------|
D|-3--3--/7--\2-0--------3-3-3-3-5-5----3--3---/7---\2-0~~~~~~-------------|
A|-3--3--/7--\2-0---3-5-----------------3--3---/7---\2-0~~~~~~-------------|
D|-3--3--/7--\2-0-----------------------3--3---/7---\2-0~~~~~~-------------|

Verse 2:
(Clean)
NOTE: Don't be thrown off by the vocals and when
they enter. Play exaclty what is here one time.
e|-----------------------------------------------------------|
B|-----------------------------------------------------------|
G|-----------------------------------------------------------|
D|--0-2-3--2--2-0----2-0-----2--2-0----0-2-3--2-------3-0----|X3
A|---------3-----------------3----------------3--------------|
D|---------3-------3-----33--3----------------3-----3--------|

e|-----------------------------------------------------------|
B|-----------------------------------------------------------|
G|-----------------------------------------------------------|
D|--0-2-3--2--2-0------------2--2-0----0-2-3-----------3-2---|
A|---------3---------33------3----------------3--------------|
D|---------3-------3-33-33---3----------------3-----3--------|

Chorus 2:
(Distortion)
e|-------------------------------------------------------------------------|
B|-------------------------------------------------------------------------|
G|-------------------------------------------------------------------------|
D|-3--3--/7--\2-0--------3-3-3-3-5-5----3--3---/7---\2-0------3-3-3-3-5-5--|
A|-3--3--/7--\2-0---3-5-----------------3--3---/7---\2-0--3-5--------------|
D|-3--3--/7--\2-0-----------------------3--3---/7---\2-0-------------------|

e|-------------------------------------------------------------------------|
B|-------------------------------------------------------------------------|
G|-------------------------------------------------------------------------|
D|-3--3--/7--\2-0--------3-3-3-3-5-5----3--3---/7---\2-0~~~~~~-------------|
A|-3--3--/7--\2-0---3-5-----------------3--3---/7---\2-0~~~~~~-------------|
D|-3--3--/7--\2-0-----------------------3--3---/7---\2-0~~~~~~-------------|

Bridge 1:
NOTE: Some sort of a phaser or wah-wah effect,
but most likely just some techniques used when
the song was mixed.
e|--------------------------------------------------------------------|
B|--------------------------------------------------------------------|
G|--------------------------------------------------------------------|
D|--0-0-0-0-0-0-0---2-2-2-3-3-0-0-----0-0-0-0-0-0-0---2-2-2-3-3-0-0---|
A|--------------------------------------------------------------------|
D|--------------------------------------------------------------------|

e|--------------------------------------------------------------------|
B|--------------------------------------------------------------------|
G|--------------------------------------------------------------------|
D|--0-0-0-0-0-0-0---2-2-2-3-3-0-0-----0-0-0-0-0-0-0---2-2-2-3-3-------|
A|--------------------------------------------------------------------|
D|--------------------------------------------------------------------|

Bridge 2 (Solo):
e|--------------------------------------------------------------------|
B|--------------------------------------------------------------------|
G|--------------------------------------------------------------------|
D|--------------------------------------------------------------------|
A|-3/-8-5--5-7-0----3/-8-5--5-7-0-----3/-8-5--5-7-0----3/-8-5---------|
D|--------------------------------------------------------------------|

Build-up
e|----------------------|
B|----------------------|
G|----------------------|
D|-00000000-3333-7777---|
A|-00000000-3333-7777---|
D|-00000000-3333-7777---|
pm ........ .... ....

Chorus 3:
e|-------------------------------------------------------------------------|
B|-------------------------------------------------------------------------|
G|-------------------------------------------------------------------------|
D|-3--3--/7--\2-0--------3-3-3-3-5-5----3--3---/7---\2-0------3-3-3-3-5-5--|
A|-3--3--/7--\2-0---3-5-----------------3--3---/7---\2-0--3-5--------------|
D|-3--3--/7--\2-0-----------------------3--3---/7---\2-0-------------------|

e|-------------------------------------------------------------------------|
B|-------------------------------------------------------------------------|
G|-------------------------------------------------------------------------|
D|-3--3--/7--\2-0--------3-3-3-3-5-5----3--3---/7---\2-0~~~~~~-------------|
A|-3--3--/7--\2-0---3-5-----------------3--3---/7---\2-0~~~~~~-------------|
D|-3--3--/7--\2-0-----------------------3--3---/7---\2-0~~~~~~-------------|

Piano is playing this through the whole chorus above.
e|--------------------|
B|-3-5-6-----3-5-6-3--|
G|--------------------|
D|--------------------|
A|--------------------|
D|--------------------|


Outro:
NOTE: This is more likely bass playing,
but sounds exactly like it on guitar.
e|---------------------------------------------------------------|
B|---------------------------------------------------------------|
G|---------------------------------------------------------------|
D|---------------------------------------------------------------|
A|---------------------------------------------------------------|
D|-2h3p2-0~~~-----2h3p2-0~~~-----2h3p2-0~~~-----2h3p2-0~~~-------|

e|---------------------------------------------------------------|
B|---------------------------------------------------------------|
G|---------------------------------------------------------------|
D|---------------------------------------------------------------|
A|---------------------------------------------------------------|
D|-2h3p2-0~~~-----2h3p2-0~~~-----2h3p2-0~~~----------------------|
Suggest correction
Give kudos to tab author, rate the tab!
1 2 3 4 5
comments
print report bad tab
guest
You may want to rate the tab now too:
select rating
Wanna post a correction for this tab? Suggest correction