Oops, an error
Loading. Please wait.

Breakneck Speed tab

26 views 3 this week
no commentswrite comment
1 2 3 4 5
3 more votes to show rating
add to favorites
×
Save as Personal and add changes to this tab that will be seen only by you. Learn more ›
×
You can save this tab as Personal to edit and correct it or add notes. All changes will be seen only by you. Learn more »
launch autoscroll
font size
0
reset
how to read this tab
guitar tuner
edit
Autoscroll
slow
fast
+/-
esc
set tempo
stop
Song: Breakneck Speed
Band: Project 86
Album: Songs to Burn Your Bridges By
Tuning: Drop D --- (ebgdaD)
“x”= Palm Mute
“/ and ” = Slide up and Slide down
       -Use distortion throughout the whole song, except for
        the “Intro”, “Verse” and “Pre-Chorus.”
                   *For the Intro, Verse and Pre-Chorus, just take distortion
                    pedal off…(regular electric guitar.)

       -The bass plays during the first part of intro…


                       Breakneck Speed


Intro-
 e|--------------------------------------------------------|
 b|--------------------------------------------------------|
 g|--------------------------------------------------------|
 d|---------3---0------3-------------------3---0----3------|
 a|-5---3----------3-----3--------5---3----------3-----3---|
 D|--------------------------------------------------------|

Verse- X2
 e|-----------------------------------|
 b|-----------------------------------|
 g|-----------------------------------|
 d|-7-7-7-7---7---7---7-7-7-7-7-7-7---|
 a|-5-5-5-5---5---5---5-5-5-5-5-5-5---|
 D|-----------------------------------|
    x x x x   x   x   x x x x x x x


 e|-----------------------------------|
 b|-----------------------------------|
 g|-----------------------------------|
 d|-7-7-7-7---7---7---7-7-7-7-7-7-7---|
 a|-5-5-5-5---5---5---5-5-5-5-5-5-5---|
 D|-----------------------------------|
    x x x x   x   x   x x x x x x x

 e|-----------------------------------|
 b|-----------------------------------|
 g|-----------------------------------|
 d|-8-8-8-8---8---8---8-8-8-8-8-8-8---|
 a|-8-8-8-8---8---8---8-8-8-8-8-8-8---|
 D|-8-8-8-8---8---8---8-8-8-8-8-8-8---|
    x x x x   x   x   x x x x x x x

 e|-----------------------------------------|
 b|-----------------------------------------|
 g|-----------------------------------------|
 d|-8-8-8-8---8---8---10-10-10-10---9-9-9---|
 a|-8-8-8-8---8---8----8--8--8--8---7-7-7---|
 D|-8-8-8-8---8---8-------------------------|
    x x x x   x   x


 e|-----------------------------------------|
 b|-----------------------------------------|
 g|-----------------------------------------|
 d|-8-8-8-8---8---8-------------------------| (Play this the second time through...)
 a|-8-8-8-8---8---8---9-9-9-10-10-9-9-------|
 D|-8-8-8-8---8---8---7-7-7-8--8--7-7-------|
    x x x x   x   x


Pre-Chorus-
 e|--------------------------------------------------------|
 b|--------------------------------------------------------|
 g|--------------------------------------------------------|
 d|---------3---0------3-------------------3---0----3------|
 a|-5---3----------3-----3--------5---3----------3-----3---|
 D|--------------------------------------------------------|

Chorus-
 e|-----------------------------------------------|
 b|-----------------------------------------------|
 g|-----------------------------------------------|
 d|-7-5-7-0---3-0---3--3--3--3-3--5-5-5-5-5-5-5---|
 a|-5-3-5-0---3-0---3--3--3--3-3--5-5-5-5-5-5-5---|
 D|-------0---3-0---3--3--3--3-3--5-5-5-5-5-5-5---|

 e|-----------------------------------------------|
 b|-----------------------------------------------|
 g|-----------------------------------------------|
 d|-7-5-7-0---3-0---3--3--3--3-3--5-5-5-5-5-5-5---|
 a|-5-3-5-0---3-0---1--1--1--1-1--3-3-3-3-3-3-3---|
 D|-------0---3-0---------------------------------|

 e|-----------------------------------------------|
 b|-----------------------------------------------|
 g|-----------------------------------------------|
 d|-7-5-7-0---3-0---3--3--3--3-3--5-5-5-5-5-5-5---|
 a|-5-3-5-0---3-0---3--3--3--3-3--5-5-5-5-5-5-5---|
 D|-------0---3-0---3--3--3--3-3--5-5-5-5-5-5-5---|

 e|------------------------------|
 b|------------------------------|
 g|------------------------------|
 d|-7-5-7-0---3-0---3--3--5--5---|
 a|-5-3-5-0---3-0---1--3--5--3---|
 D|-------0---3-0------3--5------|

Verse2 - X2
 e|-----------------------------------|
 b|-----------------------------------|
 g|-----------------------------------|
 d|-7-7-7-7---7---7---7-7-7-7-7-7-7---|
 a|-5-5-5-5---5---5---5-5-5-5-5-5-5---|
 D|-----------------------------------|
    x x x x   x   x   x x x x x x x


 e|-----------------------------------|
 b|-----------------------------------|
 g|-----------------------------------|
 d|-7-7-7-7---7---7---7-7-7-7-7-7-7---|
 a|-5-5-5-5---5---5---5-5-5-5-5-5-5---|
 D|-----------------------------------|
    x x x x   x   x   x x x x x x x


 e|-----------------------------------|
 b|-----------------------------------|
 g|-----------------------------------|
 d|-8-8-8-8---8---8---8-8-8-8-8-8-8---|
 a|-8-8-8-8---8---8---8-8-8-8-8-8-8---|
 D|-8-8-8-8---8---8---8-8-8-8-8-8-8---|
    x x x x   x   x   x x x x x x x

 e|----------------------------------------|
 b|----------------------------------------|
 g|----------------------------------------|
 d|-5-5-5-5---5---5----10-10-10-10-9-9-9---|
 a|-5-5-5-5---5---5-----8--8--8--8-7-7-7---|
 D|-5-5-5-5---5---5------------------------|
    x x x x   x   x


 e|-----------------------------------------|
 b|-----------------------------------------|
 g|-----------------------------------------|
 d|-8-8-8-8---8---8-------------------------| (Play this the second time through...)
 a|-8-8-8-8---8---8---9-9-9-10-10-9-9-------|
 D|-8-8-8-8---8---8---7-7-7-8--8--7-7-------|
    x x x x   x   x

Pre-Chorus-
 e|--------------------------------------------------------|
 b|--------------------------------------------------------|
 g|--------------------------------------------------------|
 d|---------3---0------3-------------------3---0----3------|
 a|-5---3----------3-----3--------5---3----------3-----3---|
 D|--------------------------------------------------------|


Chorus-
 e|-----------------------------------------------|
 b|-----------------------------------------------|
 g|-----------------------------------------------|
 d|-7-5-7-0---3-0---3--3--3--3-3--5-5-5-5-5-5-5---|
 a|-5-3-5-0---3-0---3--3--3--3-3--5-5-5-5-5-5-5---|
 D|-------0---3-0---3--3--3--3-3--5-5-5-5-5-5-5---|

 e|-----------------------------------------------|
 b|-----------------------------------------------|
 g|-----------------------------------------------|
 d|-7-5-7-0---3-0---3--3--3--3-3--5-5-5-5-5-5-5---|
 a|-5-3-5-0---3-0---1--1--1--1-1--3-3-3-3-3-3-3---|
 D|-------0---3-0---------------------------------|

 e|-----------------------------------------------|
 b|-----------------------------------------------|
 g|-----------------------------------------------|
 d|-7-5-7-0---3-0---3--3--3--3-3--5-5-5-5-5-5-5---|
 a|-5-3-5-0---3-0---3--3--3--3-3--5-5-5-5-5-5-5---|
 D|-------0---3-0---3--3--3--3-3--5-5-5-5-5-5-5---|

 e|------------------------------|
 b|------------------------------|
 g|------------------------------|
 d|-7-5-7-0---3-0---3--3--5--5---|
 a|-5-3-5-0---3-0---1--3--5--3---|
 D|-------0---3-0------3--5------|


                                 Bridge-
 e|-----------------------------|----|
 b|-----------------------------|----|
 g|-----------------------------|----|
 d|-7-5-7-0---3-0---3--3--5--5--|-7--|
 a|-5-3-5-0---3-0---1--3--5--3--|-5--|
 D|-------0---3-0------3--5-----|----|

         Bridge continued…
        -----------------|
        -----------------|
        -----------------| X2
        -5--2--3--2--3---|
        -3--0--3--0--3---|
        -------3-----3---|

Breakdown-
 e|-----------------------------------------------|
 b|-----------------------------------------------|
 g|-----------------------------------------------|
 d|-0-0-3-0---0---0---0-0-3--0-0-0-3-0-0-0-3------|  X5
 a|-0-0-3-0---0---0---0------0-0-----0-0----------|
 D|-0-0-3-0---0---0---0------0-0-----0-0----------|
    x x x x   x   x   x      x x     x x

      ---------------------|
      ---------------------|
      ---------------------|
      -0-0-3-0--0--0-0-----|
      -0-0-3-0--0--0-0-----|
      -0-0-3-0--0--0-0-----|
       x x x x  x  x

   ---There is a solo part played In here during this next chorus part….
a pedal needs to be used, one that I don’t have so I wasn’t able to tab it…
sorry, the rest of the song is here other than the very small solo part…
I could probably tell you where its at, but I don’t want to be misleading
if I happen to be wrong due to the pedal I don’t have…it could sound one
way without the pedal, and another way with the pedal…

Chorus - X2
 e|-----------------------------------------------|
 b|-----------------------------------------------|
 g|-----------------------------------------------|
 d|-7-5-7-0---3-0---3--3--3--3-3--5-5-5-5-5-5-5---|
 a|-5-3-5-0---3-0---3--3--3--3-3--5-5-5-5-5-5-5---|
 D|-------0---3-0---3--3--3--3-3--5-5-5-5-5-5-5---|

 e|-----------------------------------------------|
 b|-----------------------------------------------|
 g|-----------------------------------------------|
 d|-7-5-7-0---3-0---3--3--3--3-3--5-5-5-5-5-5-5---|
 a|-5-3-5-0---3-0---1--1--1--1-1--3-3-3-3-3-3-3---|
 D|-------0---3-0---------------------------------|

 e|-----------------------------------------------|
 b|-----------------------------------------------|
 g|-----------------------------------------------|
 d|-7-5-7-0---3-0---3--3--3--3-3--5-5-5-5-5-5-5---|
 a|-5-3-5-0---3-0---3--3--3--3-3--5-5-5-5-5-5-5---|
 D|-------0---3-0---3--3--3--3-3--5-5-5-5-5-5-5---|

 e|------------------------------|
 b|------------------------------|
 g|------------------------------|
 d|-7-5-7-0---3-0---3--3--5--5---|- Play the whole chorus twice through…
 a|-5-3-5-0---3-0---1--3--5--3---|
 D|-------0---3-0------3--5------|

Outro-
 e|-----------------------------------------------|
 b|-----------------------------------------------|
 g|-----------------------------------------------|
 d|-0-0-3-0---0---0---0-0-3--0-0-0-3-0-0-0-3------|  X4
 a|-0-0-3-0---0---0---0------0-0-----0-0----------|
 D|-0-0-3-0---0---0---0------0-0-----0-0----------|

 e|------|
 b|------|
 g|------| --End on this at the end of the 4th time through the Outro…
 d|--7---|
 a|--5---|
 D|------|
Suggest correction
Creating personal tab
Creating personal tab
You can edit any tab online and save it as your Personal.

You can edit, replace or remove any tab part or add personal notes – all changes will be seen only by you.

Personal tabs can be accessed anytime from any device, even offline.
Learn more »
Give kudos to tab author, rate the tab!
1 2 3 4 5
comments
print report bad tab
guest
You may want to rate the tab now too:
select rating
Wanna post a correction for this tab? Suggest correction