Oops, an error
Loading. Please wait.

Cavity King tab

version 1
version 1

Whole song

Interactive

52 views 1 this week
no commentswrite comment
1 2 3 4 5
3 more votes to show rating
add to favorites
×
Save as Personal and add changes to this tab that will be seen only by you. Learn more ›
×
You can save this tab as Personal to edit and correct it or add notes. All changes will be seen only by you. Learn more »
launch autoscroll
font size
0
reset
how to read this tab
guitar tuner
edit
Autoscroll
slow
fast
+/-
esc
set tempo
stop
Song: Cavity King
Band: Project 86
Album: ...And The Rest Will Follow
Tuning: Drop D (DADGBE)

s=slide
~=let note/chord ring
/=slur

Intro/verse:(distortion, delay)

I can't really get this correct yet, but how I play it is I just alternate between these two 
chords. 
Pick them slowly, too, almost like sweep-picking. 

e|--7-~-7~----------------|
B|--10~-9~----------------|
G|--9-~-9~----------------|
D|--7-~-7~----------------|
A|--7-~-7~----------------|
D|--7-~-7~----------------|

Chorus: 4 times

e|--------------------------------------------------------------------------------------|
B|--------------------------------------------------------------------------------------|
G|--7-7-7-7---14-14-14-14---10-10-10-10---12-12-12-12-----------------------------------|
D|--x-x-x-x----x--x--x--x---x--x--x--x----x--x--x--x------------------------------------|
A|--5-5-5-5---12-12-12-12---8--8--8--8----10-10-10-10-----------------------------------|
D|-----------------------------------------------------8/10-0-0-10/12-0-0-8/10-0-0-7/8--|

Intro/Verse

Chorus

Intro to bridge goes like this:
e|-------------------------------------|
B|-------------------------------------|
G|-------------------------------------|
D|-------------------------------------|
A|-------------------------------------|
D|--7/8-0-0-8/10-0-0-10/12-0-0-12/13---|

Bridge part 1: figure out strumming yourself

e|-----------------|
B|-----------------|
G|-----------------|
D|--0-7-8-7-10-----|
A|--0-7-8-7-10-----|
D|--0-7-8-7-10-----|

Bridge part 2: 

e|--------------------------------------------------------------------------------------------|
B|--------------------------------------------------------------------------------------------|
G|---------14-14-14-14-14---------14-14-14-14-14---------14-14-14-14-14-----------------------|
D|--0-0-0---x--x--x--x--x--5-5-5---x--x--x--x--x--0-0-0---x--x--x--x--x--5--7-7-7-7-7--3-3-3--|
A|--0-0-0--12-12-12-12-12--5-5-5--12-12-12-12-12--0-0-0--12-12-12-12-12--5--7-7-7-7-7--3-3-3--|
D|--0-0-0------------------5-5-5------------------0-0-0------------------5--7-7-7-7-7--3-3-3--|

Bridge part 3: repeat, gradually letting up on the palm muting. Don't know
what the last chord is. 

e|-----------------------------------------|
B|--3-3-3--2-2-2--0-0---2/3-3-3-3--0-0-0---|
G|-----------------------------------------|
D|-----------------------------------------|
A|-----------------------------------------|
D|-----------------------------------------|

Chorus

Bridge Intro

Bridge Part 1

Outro: 

e|------------------------------------------|
B|------------------------------------------|
G|------------------------------------------|
D|------------------------------------------|
A|------------------------------------------|
D|--8/10--0-0--10/12--0-0--8/10--0-0--7/8---|

Repeat until:

e|------------------------------------------------|
B|------------------------------------------------|
G|------------------------------------------------|
D|------------------------------------------------|
A|------------------------------------------------|
D|--8/10--0-0--10/12--0-0--12/14--0-0--14/15s\\---|
Suggest correction
Creating personal tab
Creating personal tab
You can edit any tab online and save it as your Personal.

You can edit, replace or remove any tab part or add personal notes – all changes will be seen only by you.

Personal tabs can be accessed anytime from any device, even offline.
Learn more »
Give kudos to tab author, rate the tab!
1 2 3 4 5
comments
print report bad tab
guest
You may want to rate the tab now too:
select rating
Wanna post a correction for this tab? Suggest correction