Oops, an error
Loading. Please wait.

Cement Shoes Bass Tab

273 views 1 this week
no commentswrite comment
1 2 3 4 5
please rate
add to favorites
launch autoscroll
font size
0
reset
guitar tuner
Tab Pro tools
  • play this tab
  • loop segment
  • change instrument
  • show fretboard
  • metronome
×
Best way to learn
"Cement Shoes"
Autoscroll
slow
fast
+/-
esc
set tempo
stop
Contributor
Difficulty
Tuning
intermediate
D A D G B E
-------------------------------------------------------------------------------
			     SONG NAME - Band Name
-------------------------------------------------------------------------------


Tuning: Drop D


Intro/Refrain
G|-----------------------------------------------|
D|-----------------------------------------------|
A|-------/8-5--5-/8-1--1-3-0---------------------|
E|--/5-0----------------------0-2-3--------------|

Verse 1
G|-----------------------------------------------|
D|-----------------------------------------------|
A|--------6-5-5---0-1-1---1-4-4-4-4--------------|
E|--0-0------------------------------------------|

G|-----------------------------------------------|
D|-----------------------------------------------|
A|--------6-5-5---0-1-1---1-6-6-5-5--------------|
E|--0-0------------------------------------------|

Verse 2
G|-----------------------------------------------|
D|-----------------------------------------------|
A|--------1-0------------------------------------|
E|--0-2-3-----2-3-2-3--3-2-5--8-7----------------|

Refrain

Verse 1

Verse 2

Refrain

Bridge 1
G|----------------------------------------------|
D|----------------------------------------------|
A|----------------------------------------------|
E|--888888887777777700000222233335555-----------| x3

G|----------------------------------------------|
D|----------------------------------------------|
A|----------------------------------------------|
E|--88888888-10-10-10-10-10-10-10-10------------|

Bridge 2
G|----------------------------------------------|
D|----------------------------------------------|
A|----------------------------------------------|
E|---0-0--------0----------0----------0---------|

Bridge 3
G|----------------------------------------------|
D|----------------------------------------------|
A|----------------------------------------------|
E|--7-7-7-7-8-8-8-8-5-5-5-7-8-7-8-8-------------|

Refrain



| /  slide up
| \  slide down
| h  hammer-on
| p  pull-off
| ~  vibrato
| +  harmonic
| x  Mute note
===============================================================================
comments
We did not receive enough feedback on this tab! Please rate:
print report bad tab
1 2 3 4 5
I want to post or [tab]
guest
You may want to rate the tab now too:
select rating
Please do not post tabs as comments. Select "correction" instead!