Oops, an error
Loading. Please wait.

Chimes Bass Tab

version 4
version 4

Whole song

495 views 1 this week
2 commentsread comments
1 2 3 4 5
please rate
add to favorites
launch autoscroll
font size
0
reset
guitar tuner
Autoscroll
slow
fast
+/-
esc
set tempo
stop
Help us to improve Ultimate-Guitar.com Take our survey!
×
Author
Tuning
D A D G B E
Bass Tab

Chimes - Project 86

Tuning: Drop D

~ = Sustain (Longer Held Note)

h = Hammer On

------------------------------------------------------------------

Intro x1

G|----------------------------|
D|----------------------------|
A|---565---565----------------|
D|-0-----0-----0-6~-------6-6-|

G|------------------------------|
D|------------------------------|
A|---565---565------------------|
D|-0-----0-----0-6~--3h53h53h56-|

Verse x4

G|----------------------------|
D|----------------------------|
A|---565---565----------------|
D|-0-----0-----0-6~-------6-6-|

G|----------------------------------------|
D|----------------------------------------| (play the 0h3's faster)
A|---565---565----------------------------|
D|-0-----0-----0-6~------3h50h30h30h33h56-|

Chorus x4

G|-----------------------|
D|-----------------------|
A|-----------------------|
D|-0~----6~--0-5~--------|

Verse x2

G|------------------------------|
D|------------------------------|
A|---565---565------------------|
D|-0-----0-----0-6~-------6-6-6-|

G|----------------------------------------|
D|----------------------------------------| (play the 0h3's faster)
A|---565---565----------------------------|
D|-0-----0-----0-6-------3h50h30h30h33h56-|

Chorus x4

G|-----------------------|
D|-----------------------|
A|-----------------------|
D|-0~----6~--0-5~--------|

Bridge-Part 1 x8

G|---------|
D|---------|
A|---------|
D|-0-3h5-0-|

Bridge-Part 2 x4

G|----------------------------|
D|----------------------------|
A|-5555-----------------------|
D|-------6666--5555--10010010-|

Bridge-Part 1 x8

G|---------|
D|---------|
A|---------|
D|-0-3h5-0-|

Bridge-Part 3 x1

G|--------------------------------------------------|
D|--------------------------------------------------|
A|---565---565-------------565---565----------------|
D|-0-----0-----0-6~----6-6-----0-----0-6----66666666|

Chorus x4

G|-----------------------|
D|-----------------------|
A|-----------------------|
D|-0~----6~--0-5~--------|

Outro

G|----------------------------|
D|----------------------------|
A|---565---565----------------|
D|-0-----0-----0-6~-------6-6-|

G|-----------------------------------|
D|-----------------------------------|
A|---565---565-----------------------|
D|-0-----0-----0-6~-----3h5-00003355-|

G|-------------------------|
D|-------------------------|
A|---565---565-----------5-|
D|-0-----0-----0-6--663h5--|

G|--------------------------|
D|--------------------------|
A|---565---565--------------|
D|-0-----0-----0-6----63h53-|

G|--------------------------------------|
D|--------------------------------------|
A|--------------------------------------|
D|-0~----6-6-0-5~----5-5-0~----6-6-0-5~-|
Suggest correction
Give kudos to tab author, rate the tab!
1 2 3 4 5
comments
print report bad tab
2 comments total.
0 reply
baker45_2 10 wrote on May 18 2010, 07:55 pm

As far as I can tell this is right. Thanks for giving me a tab that is right and makes since as you go through it.

0 reply
butlerc777 188 wrote on February 13 2011, 07:49 pm

Good job bro. The other tabs for this song either aren't right or aren't well-written.

guest
You may want to rate the tab now too:
select rating
Wanna post a correction for this tab? Suggest correction