Oops, an error
Loading. Please wait.

Illuminate Bass Tab

512 views 1 this week
no commentswrite comment
1 2 3 4 5
please rate
add to favorites
launch autoscroll
font size
0
reset
guitar tuner
Tab Pro tools
  • play this tab
  • loop segment
  • change instrument
  • show fretboard
  • metronome
×
Best way to learn
"Illuminate"
Autoscroll
slow
fast
+/-
esc
set tempo
stop
Contributor
Tuning
D A D G B E
-------------------------------------------------------------------------------
			     Illuminate - Project 86
-------------------------------------------------------------------------------

Tabbed By : Dumbtard
e-mail: sincerely.icabod@yahoo.com

Tuning:DADG


| h  hammer-on
| x  Mute note

ORDER:
Intro (x2)
Verse (x4)
Chorus (x2)
Intro (x2)
Verse (x4)
Chorus (x2)
Bridge (x4)
Chorus (x4)

Outro(same as intro) (x2)
Intro
G|---------------------------------------------------------------------------|
D|---------------------------------------------------------------------------|
A|---------------------------6-6-6-6-6-6-6-6-5-5-5-5-5-5-5-------------------|
D|-4h5-5-5-0-0-0-8-8-8-8-8-8-------------------------------------------------|
Verse
G|---------------------------------------------------------------------------|
D|---------------------------------------------------------------------------|
A|------------6-6-6-6-5-5----------------------------------------------------|
D|-4h5-5x-8-8----------------------------------------------------------------|
Chorus
G|---------------------------------------------------------------------------|
D|---------------------------------------------------------------------------|
A|---------------------------6-6-6-6-6-6-6-6---------5-5-5-------------------|
D|-4h5-5-5-0-0-0-8-8-8-8-8-8-----------------7-7-7-7-------------------------|
Bridge (this part isn't completely correct, but it shouldn't be hard to figure out.)
G|---------------------------------------------------------------------------|
D|---------------------------------------------------------------------------|
A|---------------------------------------------------------------------------|
D|-4h5-5x--1-1--1-1-1-1--1-1-------------------------------------------------|

===============================================================================
comments
We did not receive enough feedback on this tab! Please rate:
print report bad tab
1 2 3 4 5
I want to post or [tab]
guest
You may want to rate the tab now too:
select rating
Please do not post tabs as comments. Select "correction" instead!