Oops, an error
Loading. Please wait.

Independence Tab

283 views 3 this week
1 commentread comment
1 2 3 4 5
please rate
add to favorites
launch autoscroll
font size
0
reset
how to read this tab
guitar tuner
Autoscroll
slow
fast
+/-
esc
set tempo
stop
Help us to improve Ultimate-Guitar.com Take our survey!
×
Author
Difficulty
novice
-------------------------------------------------------------------------------
                             INDEPENDENCE? - Project 86
-------------------------------------------------------------------------------
Tabbed by: David Migl
Email: migl dot spam at gmNOSPAMail dot com
Remove "NOSPAM" and replace "dot" and "at" with their rescpective symbols to get my email.
Tuning: DADGBE - Drop D

Intro and Verse 1
Wait for the bass to finish his intro and then:

Riff 1
e|----------------------------------------------------------------------------|
B|----------------------------------------------------------------------------|
G|14141414141414141414141414/1515151515\14141414141414141414141414/1515151515\|
D|----------------------------------------------------------------------------|
A|12121212121212121212121212/1313131313\12121212121212121212121212/1313131313\|
D|----------------------------------------------------------------------------|

e|-----------------------------------------------------------------------------------|
B|-----------------------------------------------------------------------------------|
G|14141414141414141414141414/1515151515\14141414141414141414141414\12121212/17171717\|
D|-----------------------------------------------------------------------------------|
A|12121212121212121212121212/1313131313\12121212121212121212121212\10101010/15151515\|
D|-----------------------------------------------------------------------------------|

e|----------------------------------------------------------------------------|
B|----------------------------------------------------------------------------|
G|14141414141414141414141414/1515151515\14141414141414141414141414/1515151515\|
D|----------------------------------------------------------------------------|
A|12121212121212121212121212/1313131313\12121212121212121212121212/1313131313\|
D|----------------------------------------------------------------------------|

e|-----------------------------------------------------------------------------------|
B|-----------------------------------------------------------------------------------|
G|14141414141414141414141414/1515151515\14141414141414141414141414\12121212/17171717\|
D|-----------------------------------------------------------------------------------|
A|12121212121212121212121212/1313131313\12121212121212121212121212\10101010/15151515\|
D|-----------------------------------------------------------------------------------|

End on a final:
e|-----|
B|-----|
G|-14~~|
D|-----|
A|-12~~|
D|-----|
Let it ring out.
During the verse, only the bass and drums play, but the guitar plays around with the 
harmonic on the A string.

To lead into next verse,
Riff 2
e|----------------------|
B|----------------------|
G|----------------------|
D|12xx12xx12x12xx12xx12x|
A|12xx12xx12x12xx12xx12x|
D|12xx12xx12x12xx12xx12x|

And then back to Riff 1.
e|----------------------------------------------------------------------------|
B|----------------------------------------------------------------------------|
G|14141414141414141414141414/1515151515\14141414141414141414141414/1515151515\|
D|----------------------------------------------------------------------------|
A|12121212121212121212121212/1313131313\12121212121212121212121212/1313131313\|
D|----------------------------------------------------------------------------|

e|-----------------------------------------------------------------------------------|
B|-----------------------------------------------------------------------------------|
G|14141414141414141414141414/1515151515\14141414141414141414141414\12121212/17171717\|
D|-----------------------------------------------------------------------------------|
A|12121212121212121212121212/1313131313\12121212121212121212121212\10101010/15151515\|
D|-----------------------------------------------------------------------------------|

e|----------------------------------------------------------------------------|
B|----------------------------------------------------------------------------|
G|14141414141414141414141414/1515151515\14141414141414141414141414/1515151515\|
D|----------------------------------------------------------------------------|
A|12121212121212121212121212/1313131313\12121212121212121212121212/1313131313\|
D|----------------------------------------------------------------------------|

e|-----------------------------------------------------------------------------------|
B|-----------------------------------------------------------------------------------|
G|14141414141414141414141414/1515151515\14141414141414141414141414\12121212/17171717\|
D|-----------------------------------------------------------------------------------|
A|12121212121212121212121212/1313131313\12121212121212121212121212\10101010/15151515\|
D|-----------------------------------------------------------------------------------|

No guitar on verse. Again, he plays around with a harmonic. Produce the first by lightly 
just behind the fret. The first harmonic is a C note. The next harmonic is produced by 
the finger directly above the fret. It is an A note.

Riff 2 to lead into the chorus.
e|----------------------|
B|----------------------|
G|----------------------|
D|12xx12xx12x12xx12xx12x|
A|12xx12xx12x12xx12xx12x|
D|12xx12xx12x12xx12xx12x|

And then:
Riff 3
e|-----------------------------|
B|-----------------------------|
G|-----------------------------|
D|5-3-0-5-3-0-5-0-10/121212xx0-| x8
A|5-3-0-5-3-0-5-0-10/121212xx0-|
D|5-3-0-5-3-0-5-0-10/121212xx0-|

Afterwards, one guitar slowly scrapes his pick down the D and A strings while the other 
backing:
e|---------------------------------------------|
B|---------------------------------------------|
G|---------------------------------------------|
D|1212--12----1212--12----1212--12----1212--12-|
A|1212--12----1212--12----1212--12----1212--12-|
D|1212--12----1212--12----1212--12----1212--12-|

Lastly, a variation on Riff 1:
e|--------------------------------------------------|
B|--------------------------------------------------|
G|14-14---14-1414/15151515\14-14---14-1414\12121212/|
D|------0------------------------0------------------|
A|12-12-0-12-1212/13131313\12-12-0-12-1212\10101010/|
D|------0------------------------0------------------|

e|--------------------------------------------------|
B|--------------------------------------------------|
G|14-14---14-1414/15151515\14-14---14-1414\12121212/|
D|------0------------------------0------------------|
A|12-12-0-12-1212/13131313\12-12-0-12-1212\10101010/|
D|------0------------------------0------------------|

e|--------------------------------------------------|
B|--------------------------------------------------|
G|14-14---14-1414/15151515\14-14---14-1414\12121212/|
D|------0------------------------0------------------|
A|12-12-0-12-1212/13131313\12-12-0-12-1212\10101010/|
D|------0------------------------0------------------|

                   ...destruction...
e|---------------------------|
B|---------------------------|
G|14-14---14-1414--1414---14-|
D|------0--------------------|
A|12-12-0-12-1212--1212---12-|
D|------0--------------------|

Back to Riff 3 again:
e|-----------------------------|
B|-----------------------------|
G|-----------------------------|
D|5-3-0-5-3-0-5-0-10/121212xx0-| x8
A|5-3-0-5-3-0-5-0-10/121212xx0-|
D|5-3-0-5-3-0-5-0-10/121212xx0-|

Retard on the last repeat, hold for a while, and finish out with some harmonics and feedback.

I humbly submit this tab for your consideration. I transcribed it completely by ear; 
is how the song sounds to me.

I hope you find this tab useful - please send me an email if it helped you! All comments 
corrections welcome.

| /  slide up
| \  slide down
| ~  let it ring
| x  Palm mute note
===============================================================================
Suggest correction
Give kudos to tab author, rate the tab!
1 2 3 4 5
comments
print report bad tab
1 comment total.
0 reply
365_days_gone 4,287 wrote on August 6 2007, 08:13 pm

Very good. 5 Stars!

guest
You may want to rate the tab now too:
select rating
Wanna post a correction for this tab? Suggest correction