Oops, an error
Loading. Please wait.

Put Your Lips To The Tv Bass Tab

version 1
version 1

Whole song

Interactive

789 views 1 this week
no commentswrite comment
1 2 3 4 5
please rate
add to favorites
launch autoscroll
font size
0
reset
guitar tuner
Tab Pro tools
  • play this tab
  • loop segment
  • change instrument
  • show fretboard
  • metronome
×
Best way to learn
"Put Your Lips To The Tv"
Autoscroll
slow
fast
+/-
esc
set tempo
stop
Contributor
Difficulty
Tuning
intermediate
D A D G B E
-------------------------------------------------------------------------------
			     Put Your Lips to the TV - Project 86
-------------------------------------------------------------------------------

Tabbed By : Dumbtard
e-mail: sincerely.icabod@yahoo.com
   feel free to change the strum on the chorus from 4 per measure to 8 per
 measure cause thats how i play it anyway.

Tuning:DADG

| /  slide up
| \  slide down
| h  hammer-on
| p  pull-off
| ~  vibrato
| +  harmonic
| x  Mute note
| b  Bend note
Intro (x2)(after piano part)
G|---------------------------------------------------------------------------|
D|---------------------------------------------------------------------------|
A|---------------------------------------------------------------------------|
D|0/12\0-0-5-6-7-10-7-7-7-10-11-15-12p0-5-6-7-10-0-3-0-3-0-------------------|
Verse (x2)(the x's are palm mutes, but only do it if you play with a heavy distortion)
G|---------------------------------------------------------------------------|
D|---------------------------------------------------------------------------|
A|--------------------------------------12b----------------------------------|
D|-0-5-6-7-x-x--x-x-x----0-5-6-7-x-x--x--------------------------------------|
Chorus (x2)
G|---------------------------------------------------------------------------|
D|---------------------------------------------------------------------------|
A|---------------------------------------------------------------------------|
D|12-12-12-12-10-10-10-10-8-8-8-8-5-5-5-5------------------------------------|
Post-Chorus/Vamp (x2)
G|---------------------------------------------------------------------------|
D|---------------------------------------------------------------------------|
A|---------------------------------------------------------------------------|
D|-0-5-6-7-10-7-7-7-10-11-15-12p0-5-6-7-10-0-3-0-3-0-------------------------|
2nd Verse
G|---------------------------------------------------------------------------|
D|---------------------------------------------------------------------------|
A|-----------------------------------12--------------------------------------|
D|-0-5-6-7-x-x--x-x-x-0-5-6-7-x-x--x-----------------------------------------|
Chorus (x2)
G|---------------------------------------------------------------------------|
D|---------------------------------------------------------------------------|
A|---------------------------------------------------------------------------|
D|-12-12-12-12-10-10-10-10-8-8-8-8-12-12-12-12-10-10-10-10-8-8-8-8-5-5-5-5---|
2nd Chorus pt.2 (x1)
G|---------------------------------------------------------------------------|
D|---------------------------------------------------------------------------|
A|---------------------------------------------------------------------------|
D|-12-12-12-12-7-7-7-7-8-8-8-8-5-5-5-5---------------------------------------|
repeat pt. 1 of chorus after playing pt.2 once
Bridge
G|--------|
D|--------|
A|--------|
D|-0------|
Bridge pt.1 (x4)
G|---------------------------------------------------------------------------|
D|---------------------------------------------------------------------------|
A|---------------------------------------------------------------------------|
D|-4-4-4-4b-4-4b-4-4b-4-7-7-7------------------------------------------------|
Bridge pt.2 (x2)
G|---------------------------------------------------------------------------|
D|-5-5-5-7-7-7-8-8-8-10-10-10-12-12-12-12------------------------------------|
A|---------------------------------------------------------------------------|
D|---------------------------------------9-9-9-9b-9-9b-9-9b-9-9-9-9-9-9-9b---|

Chorus (x2)
Chorus pt.2 (x1)
Chorus (x1)

Outro
G|---------------------------------------|
D|---------------------------------------|
A|---------------------------------------|
D|-0-5-6-7-10let the 10 ring out-----0---|

end
===============================================================================
comments
We did not receive enough feedback on this tab! Please rate:
print report bad tab
1 2 3 4 5
I want to post or [tab]
guest
You may want to rate the tab now too:
select rating
Please do not post tabs as comments. Select "correction" instead!