Oops, an error
Loading. Please wait.

Sad Machines tab

version 1
version 1

Whole song

Interactive

44 views 1 this week
no commentswrite comment
1 2 3 4 5
3 more votes to show rating
add to favorites
×
Save as Personal and add changes to this tab that will be seen only by you. Learn more ›
×
You can save this tab as Personal to edit and correct it or add notes. All changes will be seen only by you. Learn more »
launch autoscroll
font size
0
reset
how to read this tab
guitar tuner
edit
Autoscroll
slow
fast
+/-
esc
set tempo
stop
Artist: Project 86
Song: Sad Machines
Album: Drawing Black Lines

Dropped D tuning

()=Harmonic
h= hammer-on
/= Slide
x= mute

Intro
e|-------------------(9)--------------------------------|
B|-------------------(9)--------------------------------|
G|-------------------(9)--------------------------------|   x's 4 I think
D|--9-9-9--0-7h9-9-9-(9)---7h9-9-9-0-7-7-7-10-10-10-----|
A|--9-9-9--0-7h9-9-9-(9)---7h9-9-9-0-7-7-7-10-10-10-----|
D|--9-9-9--0-7h9-9-9-(9)---7h9-9-9-0-7-7-7-10-10-10-----|

Verse

Bass
G|-------------------------------------------------------|
D|-------------------------------------------------------|
A|-------------------------------------------------------|
D|-9-9-9-9-9-9-9-9-9-7-7-7-7-7-7/10-10-10-10/12-12-12-12-|

Guitar (light overdrive/distortion)
e|----------------------|
B|----------------------|
G|--11---12--9----------|
D|--9----10--7----------|
A|----------------------|
D|----------------------|
Let each one ring

Chorus
e|--------------------------------------------------------------------|
B|--------------------------------------------------------------------|
G|--------11-------------11-------------------------------------------|
D|--0--9--x--0---7/9--9--x—-x-x--7-7-7-7-7-7-7/10--10-10-10-10--------|
A|--0--9--9--0---7/9--9--9--x-x--7-7-7-7-7-7-7/10--10-10-10-10--------|
D|--0--9-----0---7/9--9-----x-x--7-7-7-7-7-7-7/10--10-10-10-10--------|

Bridge 1
e|----------------------------------------------------------------------------|  listen to CD for rhythm 
B|----------------------------------------------------------------------------|  and timing
G|----------------------------------------------------------------------------|
D|-..4-4-4-4-4-4-5-5-9-9-9-9-9-9-9-9-9-9-9-9-9-9-9-9-9-9-9-9-9-9\7-7-7-7-7-7--|
A|-..4-4-4-4-4-4-5-5-9-9-9-9-9-9-9-9-9-9-9-9-9-9-9-9-9-9-9-9-9-9\7-7-7-7-7-7--|
D|-..4-4-4-4-4-4-5-5-9-9-9-9-9-9-9-9-9-9-9-9-9-9-9-9-9-9-9-9-9-9\7-7-7-7-7-7--|

End of Bridge 1(all other instruments cut out except guitar)

e|---------------------------------------|
B|---------------------------------------|
G|--12-12-12-12-12-12-12-12-12-12--------|
D|--11-11-11-11-11-11-11-11-11-11--------|
A|--10-10-10-10-10-10-10-10-10-10--------|
D|---------------------------------------|


Bridge 2

e|------------------------------------------------------|
B|------------------------------------------------------|
G|----------------------------------------------9-------|
D|--9-9-7-7-9p7-9-9-7-7-9p7-9-9-7-7-9p7-9-9-7-7-x-------|
A|--9-9-7-7-9p7-9-9-7-7-9p7-9-9-7-7-9p7-9-9-7-7-7-------|
D|--9-9-7-7-9p7-9-9-7-7-9p7-9-9-7-7-9p7-9-9-7-7---------|

e|----------------------------|
B|----------------------------|
G|----------------------------|
D|--9-------------------------|      Let it ring
A|--9-------------------------|
D|--9-------------------------|

Bass solo

G|-----------------------------------------------------------------|
D|------------------------------------------------------     x's 2-|
A|-----------------------------------------------------------------|
D|-9-9-9-9-9-9-9-9-9-7-7-7-7-7-7/10-10-10-10/12-12-12-12-----------|

Then..

G|----------------------------|
D|----------------------------|
A|----------------------------|
D|--9-9\7---------------------|

Come back in with..

e|----------------------------|
B|----------------------------|
G|----------------------------|
D|--9--7--10------------------|
A|--9--7--10------------------|
D|--9--7--10------------------|


Intro
Verse
Chorus
Verse
Chorus
Bridge 1
Bridge 2
Bass Solo
Chorus

            
            
Suggest correction
Creating personal tab
Creating personal tab
You can edit any tab online and save it as your Personal.

You can edit, replace or remove any tab part or add personal notes – all changes will be seen only by you.

Personal tabs can be accessed anytime from any device, even offline.
Learn more »
Give kudos to tab author, rate the tab!
1 2 3 4 5
comments
print report bad tab
guest
You may want to rate the tab now too:
select rating
Wanna post a correction for this tab? Suggest correction