Oops, an error
Loading. Please wait.

Solace bass

version 1
version 1

Whole song

Interactive

474 views 1 this week
2 commentsread comments
1 2 3 4 5
x 4
add to favorites
×
Save as Personal and add changes to this tab that will be seen only by you. Learn more ›
×
You can save this tab as Personal to edit and correct it or add notes. All changes will be seen only by you. Learn more »
launch autoscroll
font size
0
reset
guitar tuner
edit
Autoscroll
slow
fast
+/-
esc
set tempo
stop
Author
Artist: Project 86
Song: Solace
Album: Songs To Burn Your Bridges By
Tuning: Standard


Intro 2 (0:23)
G|---8----8/9\8-6----8------------8----8/9\8-6----8-------4---|
D|-6----6----------6---6-8-9-8--6----6----------6---6-4-6—--4-| 4 times
A|------------------------------------------------------------|
E|------------------------------------------------------------|

Bridge 1 (1:01)
G|-----------|
D|-6666-6666-| 4 times
A|-----------|
E|-----------|

Chorus (1:10)
G|-------------------------|
D|--------------------4444-| 4 times
A|---6---7---6------4------|
E|-4---4---4----0-4--------|

Bridge 2 (1:29)
G|-----|
D|-----|
A|-----|
E|-4*--|

Intro 2 (1:39) 4 times

Bridge 1 (2:16)

Chorus (2:26) 4 times

Bridge 3 (2:44)
G|------------|
D|------------|
A|------------|
E|-4*-4*-4*-4*|

Rest while guitar plays Riff below 8 time, then play with guitar

Riff 1 (3:12)
G|---8---9-8-----6-|
D|-6---6-----9-8---| 16 times
A|-----------------|
E|-----------------|

Interlude 2 (3:50)
G|----------------------------------------------------------|-----|
D|-6-6--6-6-6--6-6-6--6-6-6--6-----------------------------.|-6-6-|
A|-----------------------------7-7--7-7-7--7-7-7--7-7-7--7-.|-----|
E|----------------------------------------------------------|-----|

Chorus (4:11) 8 times

Leadout (4:49)
G|-----------------------------------------------|
D|-----------------------------------------------|
A|-----------------------------------------------|   END
E|-6-6--6-6-6--6-6-6--6-6-6--6-6-6--6-6-6--6-6-6-|

            
            
Suggest correction
Creating personal tab
Creating personal tab
You can edit any tab online and save it as your Personal.

You can edit, replace or remove any tab part or add personal notes – all changes will be seen only by you.

Personal tabs can be accessed anytime from any device, even offline.
Learn more »
comments
print report bad tab
2 comments total.
0 reply
Dubanubiel 204 Mar 06, 2007 08:35 AM

amazing tab m8! you may just want to fix the lead out. Good job!

0 reply
Niklaus_360 170 Nov 23, 2007 01:55 AM

Perfect, but the Leadout should look like this:

G|-----|
D|-----|
A|-----|

E|-4-4-- 4-4-4--4-4-4--4-4-4--4-4-4--4-4-4--4-4-4-|

guest
You may want to rate the tab now too:
select rating
Wanna post a correction for this tab? Suggest correction