Oops, an error
Loading. Please wait.

Something We Cant Be Tab

version 1
version 1

Whole song

367 views 1 this week
no commentswrite comment
1 2 3 4 5
2 more votes to show rating
add to favorites
launch autoscroll
font size
0
reset
how to read this tab
guitar tuner
Autoscroll
slow
fast
+/-
esc
set tempo
stop
Help us to improve Ultimate-Guitar.com Take our survey!
×
-----------------------------------------------------------------------------
                             Something We Can't Be
                                Tuning: Drop D
-----------------------------------------------------------------------------

Intro:

(Slight Distortion)
E|-----------------------------------------------------------------|
B|-----------------------------------------------------------------|
G|-----------------------------------------------------------------|
D|-----------------------------------------------------------------|
A|-----------------------------------------------------------------|
D|-4~~--4\2-2~~-4/7-7~~-6~-7~-----4~~--4\2-2~~-4/9-9~~-9\7-7--6~---|

Intro 2:

E|-----------------------------------------------------------|
B|-----------------------------------------------------------|
G|-----------------------------------------------------------|
D|-4xx4x4xx4xxxx44x4x2x2xx7x6---4xx4x4xx4xxxx44x4x2x2xx7x6---|
A|-4xx4x4xx4xxxx44x4x2x2xx7x6---4xx4x4xx4xxxx44x4x2x2xx7x6---|
D|-4xx4x4xx4xxxx44x4x2x2xx7x6---4xx4x4xx4xxxx44x4x2x2xx7x6---|

Verse 1:

E|-----------------------------------------------------------|
B|-----------------------------------------------------------|
G|-----------------------------------------------------------|
D|-4xx4x4xx4xxxx44x4x2x2xx7x6---4xx4x4xx4xxxx44x4x2x2xx7x6---|
A|-4xx4x4xx4xxxx44x4x2x2xx7x6---4xx4x4xx4xxxx44x4x2x2xx7x6---|
D|-4xx4x4xx4xxxx44x4x2x2xx7x6---4xx4x4xx4xxxx44x4x2x2xx7x6---|


E|-----------------------------|
B|-----------------------------|
G|-----------------------------|
D|-----------------------------|
A|-----------------------------|
D|-4xx4x4xx4xxxx44x4x4x4xxxxx--|


E|-----------------------------------------------------------|
B|-----------------------------------------------------------|
G|-----------------------------------------------------------|
D|-4xx4x4xx4xxxx44x4x2x2xx7x6---4xx4x4xx4xxxx44x4x2x2xx7x6---|
A|-4xx4x4xx4xxxx44x4x2x2xx7x6---4xx4x4xx4xxxx44x4x2x2xx7x6---|
D|-4xx4x4xx4xxxx44x4x2x2xx7x6---4xx4x4xx4xxxx44x4x2x2xx7x6---|

E|-----------------------------------------------------------|
B|-----------------------------------------------------------|
G|-----------------------------------------------------------|
D|-4xx4x4xx4xxxx44x4x2x2xx7x6---4xx4x4xx4xxxx44x4x2x2xx7x6---|
A|-4xx4x4xx4xxxx44x4x2x2xx7x6---4xx4x4xx4xxxx44x4x2x2xx7x6---|
D|-4xx4x4xx4xxxx44x4x2x2xx7x6---4xx4x4xx4xxxx44x4x2x2xx7x6---|

Pre-Chorus 1:
(Clean)

E|-------------------------|
B|-------------------------|
G|-------------------------|
D|--4~~~----7~~~----9~~~---|
A|-(4)~~---(7)~~---(9)~~---|
D|-(4)~~---(7)~~---(9)~~---|

Chorus 1:
(Clean)

TIP: The chorus is very hard to here, but something I learned awhile ago
is to put the CD in a discman and pull the headphones out a certain
amount...if you pull it out at the right spot, you can here only the
insturments (depending on how the song was recorded)...thatès how I
was able to tab out the chorus. Itès basically the little bridge
peice in the song right before the 3rd chorus.
E|---------------------------------------|
B|---------------------------------------|
G|---------------------------------------|
D|-2-4-7-4---2-4-7-4---2-4-7-4---2-7-2---|
A|-2-4-7-4---2-4-7-4---2-4-7-4---2-7-2---|
D|-2-4-7-4---2-4-7-4---2-4-7-4---2-7-2---|

E|---------------------------------------|
B|---------------------------------------|
G|---------------------------------------|
D|-2-4-7-4---2-4-7-4---2-4-7-4---2-7-2---|
A|-2-4-7-4---2-4-7-4---2-4-7-4---2-7-2---|
D|-2-4-7-4---2-4-7-4---2-4-7-4---2-7-2---|

After-Chorus 1:
(Distortion)

E|-----------------------|
B|-----------------------|
G|-6~~~~~~--6~~~~~~------|
D|-4~~~~~~--4~~~~~~-444--|
A|-4~~~~~~--4~~~~~~-444--|
D|-4~~~~~~--4~~~~~~-444--|

Verse 2:

E|-----------------------------------------------------------|
B|-----------------------------------------------------------|
G|-----------------------------------------------------------|
D|-4xx4x4xx4xxxx44x4x2x2xx7x6---4xx4x4xx4xxxx44x4x2x2xx7x6---|
A|-4xx4x4xx4xxxx44x4x2x2xx7x6---4xx4x4xx4xxxx44x4x2x2xx7x6---|
D|-4xx4x4xx4xxxx44x4x2x2xx7x6---4xx4x4xx4xxxx44x4x2x2xx7x6---|

E|-----------------------------------------------------------|
B|-----------------------------------------------------------|
G|-----------------------------------------------------------|
D|-4xx4x4xx4xxxx44x4x2x2xx7x6---4xx4x4xx4xxxx44x4x2x2xx7x6---|
A|-4xx4x4xx4xxxx44x4x2x2xx7x6---4xx4x4xx4xxxx44x4x2x2xx7x6---|
D|-4xx4x4xx4xxxx44x4x2x2xx7x6---4xx4x4xx4xxxx44x4x2x2xx7x6---|

Pre-Chorus 2:
(Clean)

E|-------------------------|
B|-------------------------|
G|-------------------------|
D|--4~~~----7~~~----9~~~---|
A|-(4)~~---(7)~~---(9)~~---|
D|-(4)~~---(7)~~---(9)~~---|

Chorus 2:
(Distortion)

E|---------------------------------------|
B|---------------------------------------|
G|---------------------------------------|
D|-2-4-7-4---2-4-7-4---2-4-7-4---2-7-2---|
A|-2-4-7-4---2-4-7-4---2-4-7-4---2-7-2---|
D|-2-4-7-4---2-4-7-4---2-4-7-4---2-7-2---|


E|------------------------------------------------------------|
B|------------------------------------------------------------|
G|------------------------------------------------------------|
D|-2-4-7-4---2-4-7-4---2-4-7-4---2-7-2------------------------|
A|-2-4-7-4---2-4-7-4---2-4-7-4---2-7-2---9p7-9p7-9p7-9p7-9p7--|
D|-2-4-7-4---2-4-7-4---2-4-7-4---2-7-2------------------------|

Bridge:
(Clean)

E|------------------------------------------|
B|------------------------------------------|
G|------------------------------------------|
D|-2-4-7-4----2-4-7-4----2-4-7-4----2-4\----|
A|---------------------------------------4--|
D|------------------------------------------|

Chorus 3:
(Distortion)

E|------------------------------------------------------------|
B|------------------------------------------------------------|
G|------------------------------------------------------------|
D|-2-4-7-4---2-4-7-4---2-4-7-4---2-7-2------------------------|
A|-2-4-7-4---2-4-7-4---2-4-7-4---2-7-2---9p7-9p7-9p7-9p7-9p7--|
D|-2-4-7-4---2-4-7-4---2-4-7-4---2-7-2------------------------|


E|------------------------------------------------------------|
B|------------------------------------------------------------|
G|------------------------------------------------------------|
D|-2-4-7-4---2-4-7-4---2-4-7-4---2-7-2------------------------|
A|-2-4-7-4---2-4-7-4---2-4-7-4---2-7-2---9p7-9p7-9p7-9p7-9p7--|
D|-2-4-7-4---2-4-7-4---2-4-7-4---2-7-2------------------------|

Outro:

E|--------------------------------|
B|--------------------------------|
G|--------------------------------|
D|-4xx4x4xx4xxxx44x4x2x2xx7x6-4---|
A|-4xx4x4xx4xxxx44x4x2x2xx7x6-4---|
D|-4xx4x4xx4xxxx44x4x2x2xx7x6-4---|
Suggest correction
Give kudos to tab author, rate the tab!
1 2 3 4 5
comments
print report bad tab
guest
You may want to rate the tab now too:
select rating
Wanna post a correction for this tab? Suggest correction