Oops, an error
Loading. Please wait.

The Spy Hunter Tab

version 2
version 2

Whole song

Interactive

2,126 views 3 this week
3 commentsread comments
1 2 3 4 5
accurate
x 4
add to favorites
launch autoscroll
font size
0
reset
how to read this tab
guitar tuner
Tab Pro tools
  • play this tab
  • loop segment
  • change instrument
  • show fretboard
  • metronome
Autoscroll
slow
fast
+/-
esc
set tempo
stop
Contributor
Difficulty
Tuning
novice
D A D G B E
Tilte: The Spy Hunter
Band: Project 86
Album: Songs to Burn Your Bridges By

This is my first tabs ever, its played in standard with a droped D,
i'm pretty sure its correct, if you spot an error, leave me a comment. thanks.

/ = Slide
~ = let note ring

Intro

e|------------------------------------|
B|------------------------------------|
G|14-xx-14-xx-14-xx 14-xx-99-1010-----|
D|-x-xx- x-xx- x-xx-xx-xx-x---x-x--X2-| Then
A|12-xx-12-xx-12-xx-12-xx-77-8-8------|
D|------------------------------------|

e|--------------0~------0~--------------------------------|
B|--------------0~------0~--------------------------------|
G|--------------0~------0~--------------------------------|
D|0~----666-0~--0~--0~--0~---3----------------------------|Pause "one last discise"
A|0~----666-0~------0~-------3----------------------------|
D|0~----666-0~------0~-------3----------------------------|


Verse

e|----------------------------------------------------|
B|----------------------------------------------------|
G|----------------------------------------------------|
D|00-6-00-5-00-3-0-2-0-32--00-6-00-5-00-3-0-2-0-3-----|
A|00-6-00-5-00-3-0-2-0-32--00-6-00-5-00-3-0-2-0-3-----|X5
D|00-6-00-5-00-3-0-2-0-32--00-6-00-5-00-3-0-2-0-3-----|

Prechorus

e|--------------------------------------|
B|--------------------11's & 13's-------|
G|--------------------------------------|
D|0-22-33-666-555555-/13131313131313----|
A|0-22-33-666-555555-/x x x x x x x ----|
D|0-22-33-666-555555-/11111111111111----|

e|-----------------------------------------------------|
B|-----------------------------------------------------|
G|-----------------------------------------------------|
D|0-22-33-66-555555-/1313131313131313/1414141414141414-|
A|0-22-33-66-555555------------------------------------|x x x x x x x x /x x x x x x x x
D|0-22-33-66-555555-/1111111111111111/1212121212121212-|


Chorus

e|
B|-------10----10----10---666-------|
G|----------77----77----7-777-------|
D|000~------------------------------|X8
A|000~------------------------------|
D|000~------------------------------|

Bridge

e|-----0~------------------------|
B|-----0~------------------------|
G|-----0~------------------------|
D|0~---0~------------------------|
A|0~-----------------------------|
D|0~-----------------------------|Long Pick Scrape


Verse

Prechorus

Chorus

Break Down Thingy

e|--------------------------------|
B|--------------------------------|
G|--9/10----9/10----9/10----------|
D|0-x/x--6--x/x--3--x/x--66666888-|
A|0-7/8--6--7/8--3--7/8--66666888-|
D|0------6-------3-------66666888-|

e|----------------------------------------|
B|----------------------------------------|
G|--9/10----9/10----9/10------------------|
D|0-x/x--6--x/x--3--x/x--6666666688888888-|
A|0-7/8--6--7/8--3--7/8--6666666688888888-|
D|0------6-------3-------6666666688888888-|

e|--------------------------------|
B|--------------------------------|
G|--------------------------------|
D|/13131313131313131414141414141414
A|/x x x x x x x x x x x x x x x x
D|/11111111111111111212121212121212

Chorus one more time then end on: 0
                                  0
                                  0
comments
print report bad tab
3 comments total.
0 reply
Covin wrote on April 18 2007, 01:31 pm

the chorus is totally off

-1 reply
HH_Emo_666 wrote on June 10 2007, 11:01 pm

i think the chorus is right

0 reply
targetdude wrote on July 28 2008, 09:31 am

just a few correction, rest of the tab is great, tho

the first is the chorus, which is play kinda like this

e|----------------------------------/
B|----------------------------------|
G|-------------1010101066665555-----|
D|000~---------7-7-7-7-77777777-----|X8
A|000~------------------------------|
D|000~------------------------------|

the other is the bridge, I'am not 100% sure about this one but, the higher chords in the bridge should be strummed a few times, like

e|--------------------------------------------|
B|--------------------------------------------|
G|--9/101010----9/101010----9/101010----------|
D|0-x/x-x-x--6--x/x-x-x--3--x/x-x-x--66666888-|
A|0-7/8-8-8--6--7/8-8-8--3--7/8-8-8--66666888-|
D|0----------6-----------3-----------66666888-|


thats all i can see/hear that could use changing, but other the that, great tab

I want to post or [tab]
guest
You may want to rate the tab now too:
select rating
Please do not post tabs as comments. Select "correction" instead!