Oops, an error
Loading. Please wait.

The Spy Hunter tab

version 4
version 4

Whole song

Interactive

10 views 1 this week
no commentswrite comment
1 2 3 4 5
3 more votes to show rating
add to favorites
×
Save as Personal and add changes to this tab that will be seen only by you. Learn more ›
×
You can save this tab as Personal to edit and correct it or add notes. All changes will be seen only by you. Learn more »
launch autoscroll
font size
0
reset
how to read this tab
guitar tuner
edit
Autoscroll
slow
fast
+/-
esc
set tempo
stop
About this tab version
I was just recently introduced to this song, and I really wanted to make a tab of it-so here it is. (I also added the lyrics too). Was this info helpful? Yes No
[Intro]
e|--------------------------------------------------|
B|--------------------------------------------------|
G|-14-------14--------10-------10--------9--9--10-x-|
D|-12-12-12-12-12-12--12-12-12-12-12-12--12-12-12-x-|
A|--------------------------------------------------|
D|--------------------------------------------------|
                                 
                                 One last disguise 
e|-----------|----0-----0-----|
B|-----------|----0-----0-----|
G|-----------|----0-----0-----|
D|-0---6-6-6-|-0-----0------3-|
A|-0---6-6-6-|-0-----0------3-|
D|-0---6-6-6-|-0-----0------3-|
                              (2x)
e|----------------------------|
B|----------------------------|
G|----------------------------|
D|-0-0-6-0-0-6-0--3-0-2-2-3-2-|
A|-0-0-6-0-0-6-0--3-0-2-2-3-2-|
D|-0-0-6-0-0-6-0--3-0-2-2-3-2-|

[Verse 1]
                              (8x)
e|----------------------------|
B|----------------------------|
G|----------------------------|
D|-0-0-6-0-0-6-0--3-0-2-2-3-2-|
A|-0-0-6-0-0-6-0--3-0-2-2-3-2-|
D|-0-0-6-0-0-6-0--3-0-2-2-3-2-|

Pawns standing in awe of the game
Of the stage
You've worked so hard at building an empire
Of secret rooms to display yourself
And add to your wealth
The sting of-oh it stings!
When I saw it all come crashing
I witnessed the sound of a million voices
Screaming for a public hanging

[Pre-Chorus]
                                                  (2x)
e|------------------------------------------------|-------------------------|
B|------------------------------------------------|-------------------------|
G|---------------------------13-13-13-13-13-13-13-|-13-14-14-14-14-14-14-14-|
D|-0--2-2--3-3-6-6--5-----------------------------|-------------------------|
A|-0--2-2--3-3-6-6--5-5-5-5--11-11-11-11-11-11-11-|-11-12-12-12-12-12-12-12-|
D|-0--2-2--3-3-6-6--5-5-5-5-----------------------|-------------------------|

So hide yourself, hide, hide yourself for now (for now)

[Chorus]
          >        >         >      >     (8x)
e|----------------------------------------|
B|--------10-10-10-10-10-10-10-10-6-6-6-6-|
G|--------7--7--7--7--7--7--7--7--7-7-7-7-|
D|-0-0-0----------------------------------|
A|-0-0-0----------------------------------|
D|-0-0-0----------------------------------|

We caught you plotting murder
And now the tide is turning
We'll light our souls, heal our bones
Upon your empire burning

e|----0------|
B|----0------|
G|----0------|
D|-0------*\-|
A|-0------*\-|
D|-0------*\-|

[Verse 2]
                              (8x)
e|----------------------------|
B|----------------------------|
G|----------------------------|
D|-0-0-6-0-0-6-0--3-0-2-2-3-2-|
A|-0-0-6-0-0-6-0--3-0-2-2-3-2-|
D|-0-0-6-0-0-6-0--3-0-2-2-3-2-|

When the world is a target for humanity's market
And all of it's sold for a dime
I've seen the towers of gods
And the power of men
In disguises of the worst kind
I am the words on the page
I am the death among life today
I am the voice of one among the silent
Who's tired of burning among the flames

[Pre-Chorus]
                                                  (2x)
e|------------------------------------------------|-------------------------|
B|------------------------------------------------|-------------------------|
G|---------------------------13-13-13-13-13-13-13-|-13-14-14-14-14-14-14-14-|
D|-0--2-2--3-3-6-6--5-----------------------------|-------------------------|
A|-0--2-2--3-3-6-6--5-5-5-5--11-11-11-11-11-11-11-|-11-12-12-12-12-12-12-12-|
D|-0--2-2--3-3-6-6--5-5-5-5-----------------------|-------------------------|

So hide yourself, hide, hide yourself for now (for now)

[Chorus]
           >        >         >      >     (8x)
e|----------------------------------------|
B|--------10-10-10-10-10-10-10-10-6-6-6-6-|
G|--------7--7--7--7--7--7--7--7--7-7-7-7-|
D|-0-0-0----------------------------------|
A|-0-0-0----------------------------------|
D|-0-0-0----------------------------------|

We caught you plotting murder
And now the tide is turning
We'll light our souls, heal our bones
Upon your empire burning

[Bridge]
                                      (4x)
e|------------------------------------|
B|------------------------------------|
G|----7-8----7-8----7-8---------------|
D|------------------------------------|
A|-0------6------3------x-8-8-x-10-10-|
D|-0------6------3------x-8-8-x-10-10-|

I do not need anymore truthless heroes, (truthless heroes)

e|-------------------------------------------------|
B|-------------------------------------------------|
G|-13-13-13-13-13-13-13-13-13-13-13-13-13-13-13-13-|
D|-------------------------------------------------|
A|-11-11-11-11-11-11-11-11-11-11-11-11-11-11-11-11-|
D|-------------------------------------------------|

We don't need no truthless heroes! 

[Pre-Chorus]
                                                  (2x)
e|------------------------------------------------|-------------------------|
B|------------------------------------------------|-------------------------|
G|---------------------------13-13-13-13-13-13-13-|-13-14-14-14-14-14-14-14-|
D|-0--2-2--3-3-6-6--5-----------------------------|-------------------------|
A|-0--2-2--3-3-6-6--5-5-5-5--11-11-11-11-11-11-11-|-11-12-12-12-12-12-12-12-|
D|-0--2-2--3-3-6-6--5-5-5-5-----------------------|-------------------------|

So hide yourself, hide, hide yourself for now (for now)

[Chorus]
          >        >         >      >     (8x)
e|----------------------------------------|
B|--------10-10-10-10-10-10-10-10-6-6-6-6-|
G|--------7--7--7--7--7--7--7--7--7-7-7-7-|
D|-0-0-0----------------------------------|
A|-0-0-0----------------------------------|
D|-0-0-0----------------------------------|

We caught you plotting murder
And now the tide is turning
We'll light our souls, heal our bones
Upon your empire burning

[Ending]
e|------------------------------------------|
B|--------10-10-10-10-10-10-10-6-6-6-6-6----|
G|--------7--7--7--7--7--7--7--7-7-7-7-7----|
D|-0-0-0----------------------------------0-|
A|-0-0-0----------------------------------0-|
D|-0-0-0----------------------------------0-|

I need truth!

************************************

| x   Dead note
| >   Accented note
| \   Slide down
| *   Pick rake

************************************

            
            
Suggest correction
Creating personal tab
Creating personal tab
You can edit any tab online and save it as your Personal.

You can edit, replace or remove any tab part or add personal notes – all changes will be seen only by you.

Personal tabs can be accessed anytime from any device, even offline.
Learn more »
Give kudos to tab author, rate the tab!
1 2 3 4 5
comments
print report bad tab
guest
You may want to rate the tab now too:
select rating
Wanna post a correction for this tab? Suggest correction