Oops, an error
Loading. Please wait.

To Sand We Return Tab

version 1
version 1

Whole song

Interactive

409 views 6 this week
no commentswrite comment
1 2 3 4 5
excellent!
x 1
add to favorites
launch autoscroll
font size
0
reset
how to read this tab
guitar tuner
Tab Pro tools
  • play this tab
  • loop segment
  • change instrument
  • show fretboard
  • metronome
Autoscroll
slow
fast
+/-
esc
set tempo
stop
Contributor
Title: To Sand We Return
Artist: Project 86
Album: Picket Fence Cartel

Tuning: C#

Tabbed by: 365_days_gone


Intro:
d#|------------------------------------------------------------------|
a#|------------------------------------------------------------------|
f#|------------------------------------------------------------------|
c#|-7-7-7-7---------5-5-5-5---------3-3-3-3---------2-2-2-2-5-5-5-5--|
g#|-5-5-5-5---------3-3-3-3---------1-1-1-1---------0-0-0-0-3-3-3-3--|
C#|---------0-0-0-0---------0-0-0-0---------0-0-0-0------------------|

Verse:
d#|------------------------------------------------------|
a#|------------------------------------------------------|
f#|------------------------------------------------------|
c#|-7~-12~-9~-10~----3-3-3-3-3-3-3-3--2-2-2-2-2-2-2-2----|----x3
g#|-5~-10~-7~-8~-----1-1-1-1-1-1-1-1--0-0-0-0-0-0-0-0----|
C#|------------------------------------------------------|

4th time:

d#|------------------------------------------------------|
a#|------------------------------------------------------|
f#|------------------------------------------------------|
c#|-7~-12~-9~-10~----8---7---5---3---2-2-0~~~~-----------|
g#|-5~-10~-7~-8~-----8---7---5---3---2-2-0~~~~-----------|
C#|------------------8---7---5---3---2-2-0~~~~-----------|

Chorus:

d#|-----------------------------------------|
a#|-----------------------------------------|
f#|-----------------------------------------|
c#|-7-7-7-7-7-7-10-10---5-5-5-5-5-5-8-8-----|
g#|-7-7-7-7-7-7-10-10---5-5-5-5-5-5-8-8-----|
C#|-7-7-7-7-7-7-10-10---5-5-5-5-5-5-8-8-----|

d#|-----------------------------------------|
a#|-----------------------------------------|
f#|-----------------------------------------|
c#|-3-3-3-3-2-2-2-2-----0-0-0-0-0-0-0-0-----|
g#|-3-3-3-3-2-2-2-2-----0-0-0-0-0-0-0-0-----|
C#|-3-3-3-3-2-2-2-2-----0-0-0-0-0-0-0-0-----|

Post-chorus (same as intro):

d#|------------------------------------------------------------------|
a#|------------------------------------------------------------------|
f#|------------------------------------------------------------------|
c#|-7-7-7-7---------5-5-5-5---------3-3-3-3---------2-2-2-2-5-5-5-5--|
g#|-5-5-5-5---------3-3-3-3---------1-1-1-1---------0-0-0-0-3-3-3-3--|
C#|---------0-0-0-0---------0-0-0-0---------0-0-0-0------------------|

Verse 2:
(same as verse 1)

Chorus 2:

d#|-----------------------------------------|
a#|-----------------------------------------|
f#|-----------------------------------------|
c#|-7-7-7-7-7-7-10-10---5-5-5-5-5-5-8-8-----|
g#|-7-7-7-7-7-7-10-10---5-5-5-5-5-5-8-8-----|
C#|-7-7-7-7-7-7-10-10---5-5-5-5-5-5-8-8-----|

d#|-----------------------------------------|
a#|-----------------------------------------|
f#|-----------------------------------------|
c#|-3-3-3-3-2-2-2-2-----0-0-0-0-0-0-0-0-----|
g#|-3-3-3-3-2-2-2-2-----0-0-0-0-0-0-0-0-----|
C#|-3-3-3-3-2-2-2-2-----0-0-0-0-0-0-0-0-----|

d#|---------------------------------------------|
a#|---------------------------------------------|
f#|---------------------------------------------|
c#|-7-7-7-7-7-7-10-10---5-5-5-5-5-5-8-8---------|--------|
g#|-7-7-7-7-7-7-10-10---5-5-5-5-5-5-8-8---------|        |
C#|-7-7-7-7-7-7-10-10---5-5-5-5-5-5-8-8---------|        |
                                                         |Played together
d#|---------------------------------------------|        | 
a#|---------------------------------------------|        |
f#|-7---9---10--12------14--Hit 8 times, same---|        |
c#|---------------------------------------------|--------|
g#|-5---7---8---10------12--timing as above-----|
C#|---------------------------------------------|

d#|-------------------------------------------------|
a#|-------------------------------------------------|
f#|-------------------------------------------------|
c#|-3-3-3-3-2-2-2-2-----8---7---5---3---2-2-0~~~~---|-------|
g#|-3-3-3-3-2-2-2-2-----8---7---5---3---2-2-0~~~~---|       |
C#|-3-3-3-3-2-2-2-2-----8---7---5---3---2-2-0~~~~---|       |
                                                            |
d#|-------------------------------------------------|       |
a#|-------------------------------------------------|       |
f#|-17---Hit 8 times, same--------------------------|       |
c#|-------------------------------------------------|-------|
g#|-15---timing as above----------------------------|
C#|-------------------------------------------------|

Bridge:
All 4 bars are played 3 times
until the strumming comes in.
Then 2 more times

d#|-----------------------------------|
a#|-----------------------------------|
f#|-----------------------------------|
c#|-12~-12-15-12-----12~-12-15-12-----| Bar 1
g#|-12~--------------12~--------------|
C#|-12~-12----12-----12~-12----10-----|

d#|-----------------------------------|
a#|-----------------------------------|
f#|--------12---------------12--------|
c#|-12~-12----12-----12~-12-----------| Bar 2
g#|-10~--------------10~--------------|
C#|-10~-------12-----10~-------10-----|
                                                      
d#|-----------------------------------|
a#|-----------------------------------|
f#|-------14-10------------12-14------|
c#|-8~-12------------7~-12------------| Bar 3
g#|-8~---------------7~---------------|
C#|-8~---------------7~---------------|

d#|-----------------------------------|
a#|-----------------------------------|
f#|-----------------------------------|
c#|-12~-12-15-12----------------------| Bar 4
g#|-12~-------------------------------|
C#|-12~-12----12-----12~--------------|

Strumming...comes in after the above
4 bars are played 3 times.
d#|------------------------------------------------|
a#|------------------------------------------------|
f#|------------------------------------------------|
c#|-12-12---12-12-12------12-12---12-12-12---------|
g#|-12-12---12-12-12------12-12---12-12-12---------|
C#|-12-12---12-12-12------12-12---12-12-12---------|

d#|------------------------------------------------|
a#|------------------------------------------------|
f#|------------------------------------------------|
c#|-10-10---10-10-10------10-10---10-10-10---------|
g#|-10-10---10-10-10------10-10---10-10-10---------|
C#|-10-10---10-10-10------10-10---10-10-10---------|

d#|------------------------------------------------|
a#|------------------------------------------------|
f#|------------------------------------------------|
c#|-8--8----8--8--8------7--7----7--7--7-----------|
g#|-8--8----8--8--8------7--7----7--7--7-----------|
C#|-8--8----8--8--8------7--7----7--7--7-----------|

d#|------------------------------------------------|
a#|------------------------------------------------|
f#|------------------------------------------------|
c#|-12-12---12-12-12------12-12---12-12-12---------|
g#|-12-12---12-12-12------12-12---12-12-12---------|
C#|-12-12---12-12-12------12-12---12-12-12---------|

Outro:
Play 2 times
d#|------------------------------------------------------------------|
a#|------------------------------------------------------------------|
f#|------------------------------------------------------------------|
c#|-7-7-7-7---------5-5-5-5---------3-3-3-3---------2-2-2-2-5-5-5-5--|
g#|-5-5-5-5---------3-3-3-3---------1-1-1-1---------0-0-0-0-3-3-3-3--|
C#|---------0-0-0-0---------0-0-0-0---------0-0-0-0------------------|

Final Chorus:
Play 2 times
d#|------------------------------------------------------------------|
a#|------------------------------------------------------------------|
f#|------------------------------------------------------------------|
c#|-7-7-7-7---------5-5-5-5---------3-3-3-3---------2-2-2-2-5-5-5-5--|
g#|-5-5-5-5---------3-3-3-3---------1-1-1-1---------0-0-0-0-3-3-3-3--|
C#|---------0-0-0-0---------0-0-0-0---------0-0-0-0------------------|


If you have questions, send me a message on Ultimate-Guitar
I never get notifications on comments posted.
comments
We did not receive enough feedback on this tab! Please rate:
print report bad tab
1 2 3 4 5
I want to post or [tab]
guest
You may want to rate the tab now too:
select rating
Please do not post tabs as comments. Select "correction" instead!