Oops, an error
Loading. Please wait.

Project Salty Stomp Tab

1 view 1 this week
no commentswrite comment
1 2 3 4 5
3 more votes to show rating
add to favorites
launch autoscroll
font size
0
reset
how to read this tab
guitar tuner
Autoscroll
slow
fast
+/-
esc
set tempo
stop
Help us to improve Ultimate-Guitar.com Take our survey!
×
Author
Difficulty
novice
[Intro]
e|------------------------------------------|
B|------------------------------------------|
G|-----------6------------6-----------------|
D|-----------6------------6-----------------|
A|-----------4------------4-----------------|
E|-------------------------------pickslide--|

[Verse]
e|--------------------------------------------------------------------|
B|--------------------------------------------------------------------|
G|---6-6-----4-4------------------------------------------------------|
D|---6-6-6-6-4-4-4-4--------------------------------------------------|
A|---4-4-6-6-2-2-4-4--------------------------------------------------| (x4)
E|-------4-4-----2-2--------------------------------------------------|

e|-----------|
B|-----------|
G|---6-------|
D|---6-------|
A|---4-------|
E|-----------|

e|--------------------------------------------------------------------|
B|--------------------------------------------------------------------|
G|---6-6-----4-4------------------------------------------------------|
D|---6-6-6-6-4-4-4-4--------------------------------------------------|
A|---4-4-6-6-2-2-4-4--------------------------------------------------| (x4)
E|-------4-4-----2-2--------------------------------------------------|

[Chorus]
e|---------------------------------------------------------------------------|
B|---------------------------------------------------------------------------|
G|-----6-6-6-6-6-6--4-4-9-9-9-9----------------------------------------------|
D|-----6-6-6-6-6-6--4-4-9-9-9-9----------------------------------------------|
A|-----4-4-4-4-4-4--2-2-7-7-7-7----------------------------------------------| (x4)
E|---------------------------------------------------------------------------|

[Outro]
e|--------------------------------------------------------------------|
B|--------------------------------------------------------------------|
G|---6-6-----4-4------------------------------------------------------|
D|---6-6-6-6-4-4-4-4--------------------------------------------------|
A|---4-4-6-6-2-2-4-4--------------------------------------------------| (x4)
E|-------4-4-----2-2--------------------------------------------------|

e|-----------|
B|-----------|
G|---6-------|
D|---6-------|
A|---4-------|
E|-----------|
Suggest correction
Give kudos to tab author, rate the tab!
1 2 3 4 5
comments
print report bad tab
guest
You may want to rate the tab now too:
select rating
Wanna post a correction for this tab? Suggest correction