Oops, an error
Loading. Please wait.

Room To Breathe tab

748 views 1 this week
2 commentsread comments
1 2 3 4 5
2 more votes to show rating
add to favorites
×
Save as Personal and add changes to this tab that will be seen only by you. Learn more ›
×
You can save this tab as Personal to edit and correct it or add notes. All changes will be seen only by you. Learn more »
launch autoscroll
font size
0
reset
how to read this tab
guitar tuner
edit
Autoscroll
slow
fast
+/-
esc
set tempo
stop
Here are the tabs for Room To Breathe. I'm pretty sure they're right. E-mail me if u have any questions or if I have any mistakes.
(Drop D tuning)

Intro
--------------------------------------------------
--------------------------------------------------
----------7----7--------8---8---------------------
--------7----7--------8---8-----------------------  x2
------5-----5-------6---6-------------------------
----0-----0--------0---0--------------------------

Chorus
--------------------------------------------------
--------------------------------------------------
--------------------------------------------------      
-0----------0---------1--------1----------3-3-3---
-0----(x13)-0---(x13)-1---(x13)1---(x12)--3-3-3---
-0----------0---------1--------1----------3-3-3---


Interlude
--------------------------------------------------
--------------------------------------------------
--------------------------------------------------
-----------------1--------------------------------
-----0-------------(x10)--------------------------
-0-0--(x10)---0-0---------------------------------
All palm muted

After this it goes back to the intro, and well listen to the song to figure out the order in which the rest is played.

Also in the verse it's just playing little things here and there that I dont know how to play yet. But the rest seems to be pretty much right. But I made up the interlude part myself and I'm not sure if its right. Hope ya like it anyway.q  

Enjoy!
Suggest correction
Creating personal tab
Creating personal tab
You can edit any tab online and save it as your Personal.

You can edit, replace or remove any tab part or add personal notes – all changes will be seen only by you.

Personal tabs can be accessed anytime from any device, even offline.
Learn more »
Give kudos to tab author, rate the tab!
1 2 3 4 5
comments
print report bad tab
2 comments total.
0 reply
WyZe_GuY 30 Jan 26, 2002 07:00 PM

The interlude should be:
e-
b-
g-
d--7----7---
a-5--5-5----(x10)
d-
and:
e-
b-
g-
d--8----8--
a-6--6-6---(x10)
d-
just listen to the cd for the pattern

0 reply
WyZe_GuY 30 May 17, 2002 08:00 PM

Also in the 2nd part of the intro those 8's should be played on the B string

guest
Wanna post a correction for this tab? Suggest correction