Oops, an error
Loading. Please wait.

Dance Floor Justice Tab

7 views 1 this week
no commentswrite comment
1 2 3 4 5
3 more votes to show rating
add to favorites
launch autoscroll
font size
0
reset
how to read this tab
guitar tuner
Autoscroll
slow
fast
+/-
esc
set tempo
stop
Help us to improve Ultimate-Guitar.com Take our survey!
×
Author
Difficulty
intermediate
[Intro]

e|----------------------------------------------|
B|----------------------------------------------|
G|---------5-5-5---------5-5-5-------5-5--------|
D|--4-4-4--5-5-5--4-4-4--5-5-5--4-4--5-5--------|
A|--4-4-4--3-3-3--4-4-4--3-3-3--4-4--3-3--------| 
E|--2-2-2---------2-2-2---------2-2-------------|(x4)

e|----------------------------|
B|----------------------------|
G|----------------------------|
D|--4--4--4--4-4-4------------|
A|--4--4--4--4-4-4------------|
E|--2--2--2--2-2-2------------|


[Verse]                           

e|------------------------------|
B|------------------------------|
G|--------------7----7----------|
D|--4-4-4--6-7--7-7--7-7--------|
A|--4-4-4--6-7--5-7--5-7--------| 
E|--2-2-2--4-5----5----5--------|(x4)


[Chorus]

e|-----------------|
B|-----------------|
G|-----5-----------|
D|--4--5--5--------|
A|--4--3--5--------| 
E|--2-----3--------|(x2)

e|-------------------------|
B|-------------------------|
G|-------------------------|
D|-4----4------------------|
A|-4----4------------------|
E|-2----2------------------|
   

[Verse]                           

e|------------------------------|
B|------------------------------|
G|--------------7----7----------|
D|--4-4-4--6-7--7-7--7-7--------|
A|--4-4-4--6-7--5-7--5-7--------| 
E|--2-2-2--4-5----5----5--------|(x4)


[Chorus]

e|-----------------|
B|-----------------|
G|-----5-----------|
D|--4--5--5--------|
A|--4--3--5--------| 
E|--2-----3--------|(x2)


[Outro]

e|----------------------------------------------|
B|----------------------------------------------|
G|---------5-5-5---------5-5-5-------5-5--------|
D|--4-4-4--5-5-5--4-4-4--5-5-5--4-4--5-5--------|
A|--4-4-4--3-3-3--4-4-4--3-3-3--4-4--3-3--------| 
E|--2-2-2---------2-2-2---------2-2-------------|(x3)


e|--------------------------------|
B|--------------------------------|
G|---------5-5-5---------5-5-5----|
D|--4-4-4--5-5-5--4-4-4--5-5-5--4-|
A|--4-4-4--3-3-3--4-4-4--3-3-3--4-| 
E|--2-2-2---------2-2-2---------2-|
Suggest correction
Give kudos to tab author, rate the tab!
1 2 3 4 5
comments
print report bad tab
guest
You may want to rate the tab now too:
select rating
Wanna post a correction for this tab? Suggest correction