Oops, an error
Loading. Please wait.

Straight Edge Revenge Tab

1 view 1 this week
no commentswrite comment
1 2 3 4 5
3 more votes to show rating
add to favorites
launch autoscroll
font size
0
reset
how to read this tab
guitar tuner
Autoscroll
slow
fast
+/-
esc
set tempo
stop
Help us to improve Ultimate-Guitar.com Take our survey!
×
Author
Difficulty
intermediate
[Verse]

e|----------------------------------|
b|----------------------------------|
G|----------------------------------|
D|--7-7-7--8-8-8--10-10-10--9-9-9---|
A|--7-7-7--8-8-8--10-10-10--9-9-9---| x4
E|--5-5-5--6-6-6--8--8--8---7-7-7---|

e|----|
b|----|
G|----|
D|--7-|
A|--7-|
E|--5-|


[Chorus]

e|--------------------|
b|--------------------|
G|---------5-7--------|
D|--7-7-7--5-7--------|
A|--7-7-7--3-5--------| x3
E|--5-5-5-------------|

e|------------|
b|------------|
G|------------|
D|--7-7-7-7-7-|
A|--7-7-7-7-7-|
E|--5-5-5-5-5-|

e|--------------------|
b|--------------------|
G|---------5-7--------|
D|--7-7-7--5-7--------|
A|--7-7-7--3-5--------| x3
E|--5-5-5-------------|

e|------------|
b|------------|
G|------------|
D|--7-7-7-7-7-|
A|--7-7-7-7-7-|
E|--5-5-5-5-5-|


[Bridge]

e|----------------------------------|
b|----------------------------------|
G|----------------------------------|
D|--7-7-7-7-7-7-7-7-----------------|
A|--7-7-7-7-7-7-7-7-----------------|
E|--5-5-5-5-5-5-5-5-----------------|
    . . . . . . . .


[Verse]

e|----------------------------------|
b|----------------------------------|
G|----------------------------------|
D|--7-7-7--8-8-8--10-10-10--9-9-9---|
A|--7-7-7--8-8-8--10-10-10--9-9-9---| x4
E|--5-5-5--6-6-6--8--8--8---7-7-7---|

e|----|
b|----|
G|----|
D|--7-|
A|--7-|
E|--5-|


[Chorus]

e|--------------------|
b|--------------------|
G|---------5-7--------|
D|--7-7-7--5-7--------|
A|--7-7-7--3-5--------| x3
E|--5-5-5-------------|

e|------------|
b|------------|
G|------------|
D|--7-7-7-7-7-|
A|--7-7-7-7-7-|
E|--5-5-5-5-5-|

e|--------------------|
b|--------------------|
G|---------5-7--------|
D|--7-7-7--5-7--------|
A|--7-7-7--3-5--------| x3
E|--5-5-5-------------|

e|------------|
b|------------|
G|------------|
D|--7-7-7-7-7-|
A|--7-7-7-7-7-|
E|--5-5-5-5-5-|
Suggest correction
Give kudos to tab author, rate the tab!
1 2 3 4 5
comments
print report bad tab
guest
You may want to rate the tab now too:
select rating
Wanna post a correction for this tab? Suggest correction