Oops, an error
Loading. Please wait.

Where It Ends Tab

1 view 1 this week
no commentswrite comment
1 2 3 4 5
3 more votes to show rating
add to favorites
launch autoscroll
font size
0
reset
how to read this tab
guitar tuner
Autoscroll
slow
fast
+/-
esc
set tempo
stop
Help us to improve Ultimate-Guitar.com Take our survey!
×
Author
Difficulty
novice
[Intro]

e|----------------------|
b|----------------------|
G|--5-------------------|
D|--5--5-8--7-----------|
A|--3--5-8--7-----------| 
E|-----3-6--5-----------|(x3)

e|-------------------------------------------|
b|-------------------------------------------|
G|-----------------------5-------------------|
D|--7-7-7-7-7-7-7-7-7-7--5--5-8--------------|
A|--7-7-7-7-7-7-7-7-7-7--3--5-8--------------| 
E|--5-5-5-5-5-5-5-5-5-5-----3-6--------------|(x2)


[Verse]

e|--------------------------------------------|
b|--------------------------------------------|
G|----------5-5-5------------------8-8--------|
D|--5-5-5-5-5-5-5--7-7-7-7-7--8-8--8-8--------|
A|--5-5-5-5-3-3-3--7-7-7-7-7--8-8--6-6--------| 
E|--3-3-3-3--------5-5-5-5-5--6-6-------------|(x4)
    . . . . . . .  . . . . . 

e|----|
b|----|
G|----|
D|--5-|
A|--5-| 
E|--3-|


[Chorus]

e|-------------------|
b|-------------------|
G|----5--3-----------|
D|--5-5--3-3---------|
A|--5-3--1-3---------| 
E|--3------1---------|(x4)

e|----|
b|----|
G|----|
D|--5-|
A|--5-| 
E|--3-|


[Verse]

e|--------------------------------------------|
b|--------------------------------------------|
G|----------5-5-5------------------8-8--------|
D|--5-5-5-5-5-5-5--7-7-7-7-7--8-8--8-8--------|
A|--5-5-5-5-3-3-3--7-7-7-7-7--8-8--6-6--------| 
E|--3-3-3-3--------5-5-5-5-5--6-6-------------|(x4)
    . . . . . . .  . . . . .

e|----|
b|----|
G|----|
D|--5-|
A|--5-| 
E|--3-|


[Chorus]

e|-------------------|
b|-------------------|
G|----5--3-----------|
D|--5-5--3-3---------|
A|--5-3--1-3---------| 
E|--3------1---------|(x4)

e|----|
b|----|
G|----|
D|--5-|
A|--5-| 
E|--3-|


[Outro]

e|------------------|
b|------------------|
G|-----5------------|
D|--7--5-5-8--------|
A|--7--3-5-8--------| 
E|--5----3-6--------|(x6)

e|----------------------|
b|----------------------|
G|--5-------------------|
D|--5--5-8--7-----------|
A|--3--5-8--7-----------|
E|-----3-6--5-----------|



************************************

| .  palm mute

************************************
Suggest correction
Give kudos to tab author, rate the tab!
1 2 3 4 5
comments
print report bad tab
guest
You may want to rate the tab now too:
select rating
Wanna post a correction for this tab? Suggest correction