Oops, an error
Loading. Please wait.

Closure Tab

262 views 1 this week
no commentswrite comment
1 2 3 4 5
excellent!
x 5
add to favorites
launch autoscroll
font size
0
reset
how to read this tab
guitar tuner
Tab Pro tools
  • play this tab
  • loop segment
  • change instrument
  • show fretboard
  • metronome
Autoscroll
slow
fast
+/-
esc
set tempo
stop
Contributor
Difficulty
Tuning
intermediate
B F# B E G# C#
Projected: Closure

Transcribed by: mysticguitar77

YouTube Username: MysticGuitar77

Projected's website: http://www.projectedband.com/fr_home.cfm

Date last modified: March 3, 2013

Tuning: Drop B (B,F#,B,E,G#,C#)

Note: John's parts only.

Riff 1 (w/ modulation effect)
C#|------------------------------------------------------------------------|
G#|------------------------------------------------------------------------|
 E|-------------------------------4----------------------------------------|
 B|-0-2-2-2-2-2-2-2-2-2-2-2-0-2-3---3-0-2-2-2-2-2-2-2-0-2-0-2-0-2-0-2-0-2\-|
F#|---------------------------------------------------0-2-0-2-0-2-0-2-0-2\-|
 B|---------------------------------------------------0-2-0-2-0-2-0-2-0-2\-|
    * * * * * * * * * * * * * * * * * * * * * * * * *

Play Riff 1 x4

Riff 2
C#|-----------------------------------------------------------------|
G#|-----------------------------------------------------------------|
 E|-----------------------------------------------------------------|
 B|-----------------------------------------------------------------|
F#|-----------------------------5-5---------------3-3-3-3-3-3---3p2-|
 B|-0-2-2-0-2-2-0-2-2-0-2-2-2-2-----0-2-2-0-2-2-2-------------0-----|

C#|----------------------------------------------------------|
G#|----------------------------------------------------------|
 E|--------------------------------------5/7---7\5---5-5-4/5-|
 B|---------------------------------0--0-x-x---x-x---x-x-x-x-|
F#|-----------------------------5-5-0--0-3/5---5\3---3-3-2/3-|
 B|-0-2-2-0-2-2-0-2-2-0-2-2-2-2-----0--0-----0-----0---------|
                                    ^ ends here final time

Play Riff 2 x1

Riff 3   "Stop, start, think I'm starting over..."
C#|------------------------------------------------------------|
G#|------------------------------------------------------------|
 E|------------------------------------------------------------|
 B|------------------------------------------------------------| x3
F#|-5-7--5-7--5-7--5-7--5-7--5-7--5-7--5-7---------------------|
 B|----------------------------------------10-12-10-0-10-8-7-8-|
    * *  * *  * *  * *  * *  * *  * *  * *

C#|---------------------------------|
G#|---------------------------------|
 E|-2---2---2---2---2---2---2---2---|
 B|-2-0-2-0-2-0-2-0-2-0-2-0-2-0-2-0-|
F#|-0-0-0-0-0-0-0-0-0-0-0-0-0-0-0-0-|
 B|---0---0---0---0---0---0---0---0-|

Play Riff 2 x2   "Turn it on, turn it over..."
Play Riff 1 x1   (w/ modulation effect)
Play Riff 3 x1   (extend ending without the rest unlike previous time)
Play Ruff 2 x4   "Turn it on, turn it over..."
Play Riff 1 x4   (w/ tremolo effect)

Riff 4
C#|-----------------------------------------------------|
G#|-----------------------------------------------------|
 E|-----------------------------------------------------|
 B|-----------------------------0-0--0-0--0-0--0-0--0-0-|
F#|-----------------------------0-0--0-0--0-0--0-0--0-0-|
 B|-12-13-14-15-12-13-14-15-12\-0-0--0-0--0-0--0-0--0-0-|
                                * *  * *  * *  * *  * *

C#|-----------------------------------------------------|
G#|-----------------------------------------------------|
 E|-----------------------------------------------------|
 B|-----------------------------0-0--0-0--0-0--0-0--0-0-|
F#|-------------12--------------0-0--0-0--0-0--0-0--0-0-|
 B|-12-13-14-15----15-14-13-12\-0-0--0-0--0-0--0-0--0-0-|
                                * *  * *  * *  * *  * *

Solo (w/ slight delay)
C#|----11----11----11---------15----15----15-----|
G#|-15----15----15----15\-/19----19----19----19\-|
 E|----------------------------------------------|
 B|----------------------------------------------|
F#|----------------------------------------------|
 B|----------------------------------------------|

C#|----8----8----8-------3---3---3--------11----11----11-----|
G#|-11---11---11---11\-6---6---6---6\-/15----15----15----15\-|
 E|----------------------------------------------------------|
 B|----------------------------------------------------------|
F#|----------------------------------------------------------|
 B|----------------------------------------------------------|

C#|-----8----8----8-----------------------------------------|
G#|-/11---11---11---11\-------------------------------------|
 E|------------------------------12h13h14----------12h13h14-|
 B|---------------------12h13h14----------12h13h14----------|
F#|---------------------------------------------------------|
 B|---------------------------------------------------------|

C#|-----------------------|
G#|-17h18h20-17h18h20-17~-|
 E|-----------------------|
 B|-----------------------|
F#|-----------------------|
 B|-----------------------|

Play Riff 2 x1

Riff 2 ending alteration (played like this for the remainder of the song)
C#|-----------------------------------------------------------------|
G#|-----------------------------------------------------------------|
 E|--------------------------------------11/12---12\11---11-11-9/11-|
 B|---------------------------------0--0-x--x----x--x----x--x--x-x--|
F#|-----------------------------5-5-0--0-9//10---10\9----9--9--7/9--|
 B|-0-2-2-0-2-2-0-2-2-0-2-2-2-2-----0--0-------0-------0------------|
                                               *       *

Play Riff 2 alteration x3   "Turn it on, turn it over..."

Enjoy!!
comments
print report bad tab
I want to post or [tab]
guest
You may want to rate the tab now too:
select rating
Please do not post tabs as comments. Select "correction" instead!