Oops, an error
Loading. Please wait.

Hello Tab

655 views 1 this week
no commentswrite comment
1 2 3 4 5
x 6
add to favorites
launch autoscroll
font size
0
reset
how to read this tab
guitar tuner
Autoscroll
slow
fast
+/-
esc
set tempo
stop
Help us to improve Ultimate-Guitar.com Take our survey!
×
Author
Difficulty
Tuning
intermediate
B F# B E G# C#
Projected: HELLo

Transcribed by: mysticguitar77

YouTube Username: MysticGuitar77

Projected website: http://www.projectedband.com/fr_home.cfm

Date last modified: March 3, 2013

Tuning: Drop B (B,F#,B,E,G#,C#)

Riff 1
C#|---------------------------------------------------------------|
G#|---------------------------------------------------------------|
 E|---------------------------------------------------------------|
 B|---------------------------------------------------------------|
F#|-------------------5p4-------------------------5p4---------7---|
 B|-0-4-0-4-0-4b-0--0-----0-4b-0--0-7p4-0-4b-0--0-----4-5-4-0---4-|
    ^ ^ (these 2 notes are only played the first time)

Play Riff 1 x4

Riff 2 (w/ delay)   "Some people never ever seem to grow..."
C#|--------------------------------------------------------------------|
G#|--------------------------------------------------------------------|
 E|--------------------------------------------------------------------|
 B|-4~---4/6-6b~--6-\-4-0~--/12-14-11-11-11h12-9-11-7-9-7-6-6-7-6-2/4~-|
F#|--------------------------------------------------------------------|
 B|--------------------------------------------------------------------|

C#|------------------------------------------------------------|
G#|------------------------------------------------------------|
 E|--------------------------------11h13-------------11h13-----|
 B|-4/6-6b~--6-\-4-0~--12h14-12h14-------12h14-12h14-------12~-|
F#|------------------------------------------------------------|
 B|------------------------------------------------------------|

Repeat first half, then:
C#|----------------------------|
G#|----------------------------|
 E|----------------------------|
 B|-4/6-6b~--6-\-4-0~---0-0-0~-|
F#|---------------------0-0-0~-|
 B|---------------------0-0-0~-|

Riff 3   "I can feel it coming on around me now..."
C#|-0--0-0-0--0-0--0-0-0-0-0-0-0-0--0-0-0--0-0--0-0-0-0-0-0-0-|
G#|-0--0-0-0--0-0--0-0-0-0-0-0-0-0--0-0-0--0-0--0-0-0-0-0-0-0-|
 E|-9--9-9-9--9-9--9-9-9-9-9-9-9-7--7-7-7--7-7--7-7-7-7-7-7-7-|
 B|-9--9-9-9--9-9--9-9-9-9-9-9-9-7--7-7-7--7-7--7-7-7-7-7-7-7-|
F#|-7--7-7-7--7-7--7-7-7-7-7-7-7-5--5-5-5--5-5--5-5-5-5-5-5-5-|
 B|-----------------------------------------------------------|

C#|-0--0-0-0--0-0--0-0-0-0-0--0-0--0-0-0--0-0-0-0-0-0-|
G#|-0--0-0-0--0-0--0-0-0-0-0--3-3--3-3-3--3-3-3-3-3-3-|
 E|-6--6-6-6--6-6--6-6-6-6-0--2-2--2-2-2--2-2-2-2-2-2-|
 B|-4--4-4-4--4-4--4-4-4-4-0--0-0--0-0-0--0-0-0-0-0-0-|
F#|-4--4-4-4--4-4--4-4-4-4-0--0-0--0-0-0--0-0-0-0-0-0-|
 B|-4--4-4-4--4-4--4-4-4-4-0--0-0--0-0-0--0-0-0-0-0-0-|

Riff 3 last time through:
C#|-0--0-0-0--0-0-0-0-0--0---0--0-0-0-0--0-0-0-0-0-|
G#|-0--0-0-0--0-0-0-0-0--0---0--0-0-0-0--0-0-0-0-0-|
 E|-9--9-9-9--9-9-9-9/11-11--7--7-7-7-7--7-7-7-7-7-|
 B|-9--9-9-9--9-9-9-9/11-11--7--7-7-7-7--7-7-7-7-7-|
F#|-7--7-7-7--7-7-7-7/9--9---5--5-5-5-5--5-5-5-5-5-|
 B|------------------------------------------------|

Play Riff 3 x2
Play Riff 1 x2
Play Riff 2 x1 (only the first half gets played followed by the ending)
Play Riff 3 x4   "I can feel it coming on around me now..."

Solo (w/ delay)
C#|---------------------------------|
G#|---------------------------------|
 E|---------------------------------|
 B|-4~----4-6-7-6-4-2h4p2~--5*5*5*~-|
F#|-------------------------5*5*5*~-|
 B|-------------------------5*5*5*~-|

C#|----------------------------------------------------------------------|
G#|------/12~------------------------------------------------------------|
 E|-/14~------/13-11~--11-13-13b14r13-13-13\11-11-11\9-9-9\7-7-7\6-6-7\~-|
 B|----------------------------------------------------------------------|
F#|----------------------------------------------------------------------|
 B|----------------------------------------------------------------------|

C#|-14-----14-----14----------12-12-12-12-10-10~--10-10-10-10-10-10-10~-|
G#|-17b19--17b19--17b19--15~--15-15-14-14-12-12~--10-10-10-10-10-12-10~-|
 E|---------------------------------------------------------------------|
 B|---------------------------------------------------------------------|
F#|---------------------------------------------------------------------|
 B|---------------------------------------------------------------------|

C#|-17-14-17-14-17-14-16-14-16-14-16-14-19-16-19-16-19-16-|
G#|-------------------------------------------------------|
 E|-------------------------------------------------------|
 B|-------------------------------------------------------|
F#|-------------------------------------------------------|
 B|-------------------------------------------------------|

C#|-17-16-17-16-17-16-21-17-21-17-21-17-19-17-19-17-19-17-|
G#|-------------------------------------------------------|
 E|-------------------------------------------------------|
 B|-------------------------------------------------------|
F#|-------------------------------------------------------|
 B|-------------------------------------------------------|

C#|-19b21r19p17----------------------|
G#|-------------17~--19-19b21r19-17~-|
 E|----------------------------------|
 B|----------------------------------|
F#|----------------------------------|
 B|----------------------------------|

Play Riff 3 x4   "I can feel it coming on around me now..."
Play Riff 1 x4   "...last to know!!"

Ending:
C#|------------|
G#|------------|
 E|------------|
 B|------------|
F#|------------|
 B|-4-5-4-0-4\-|

Enjoy!!
Suggest correction
comments
print report bad tab
guest
You may want to rate the tab now too:
select rating
Wanna post a correction for this tab? Suggest correction