Oops, an error
Loading. Please wait.

Watch It Burn Tab

508 views 3 this week
no commentswrite comment
1 2 3 4 5
excellent!
x 5
add to favorites
launch autoscroll
font size
0
reset
how to read this tab
guitar tuner
Tab Pro tools
  • play this tab
  • loop segment
  • change instrument
  • show fretboard
  • metronome
Autoscroll
slow
fast
+/-
esc
set tempo
stop
Contributor
Difficulty
Tuning
novice
B F# B E G# C#
Projected: Watch It Burn

Transcribed by: mysticguitar77

YouTube Username: MystcGuitar77

Projected website: http://www.projectedband.com/fr_home.cfm

Date last modified: March 3, 2013

Tuning: Drop B (B,F#,B,E,G#,C#)

Riff 1 (w/ delay)
C#|---------------------------------------------|
G#|---------------------------------------------|
 E|---------------------------------------------|
 B|-15-12-0-15-12-0-15-12-0-15-12-0-15-12-0-0-0-|
F#|---------------------------------------------|
 B|---------------------------------------------|
    *  *  * *  *  * *  *  * *  *  * *  *  * * *

Riff 2   "So I see, the empty world around me now..."
C#|--------------------------------------------|
G#|--------------------------------------------|
 E|--------------------------------------------|
 B|--------------------------------------------|
F#|--------------------------------------------|
 B|-15-12-0-15-12-0-15-12-0-15-12-0-15-12-0-15-|
    *  *  * *  *  * *  *  * *  *  * *  *  * *

C#|----------------------------------------------|
G#|----------------------------------------------|
 E|----------------------------------------------|
 B|----------------------------------------------|
F#|----------------------------------------------|
 B|-11-12-11-12-11-12-11-12-11-12-11-12-11-12-8\-|
    *  *  *  *  *  *  *  *  *  *  *  *  *  *

C#|-------------------------------------------|
G#|-------------------------------------------|
 E|-------------------------------------------|
 B|-------------------------------------------|
F#|--------------------12~--------------------|
 B|-15-12-0-15-12-0-15-----15-12-0-15-12-0-15-|
    *  *  * *  *  * *      *  *  * *  *  * *

C#|----------------------------------------------|
G#|----------------------------------------------|
 E|----------------------------------------------|
 B|----------------------------------------------|
F#|----------------------------------------------|
 B|-11-12-11-12-11-12-11-12-8-7-8-7-8-7-8-8-7-5\-|
    *  *  *  *  *  *  *  *  * * * * * * * * * 

Play Riff 2 x2   "So I bleed..."

Riff 3
C#|-------------------------------------------------|
G#|-------------------------------------------------|
 E|-------------------------------------------------|
 B|-------------------------------------------------|
F#|-000-0-0-0--0-0--0-------000-0-0-0--0-0--0-------|
 B|-000-0-0-0--0-0--0-0h1-1-000-0-0-0--0-0--0-0h3-3-|
    *** * * *  * *  *       *** * * *  * *  *

C#|---------------------------------------------------------|
G#|---------------------------------------------------------|
 E|---------------------------------------------------------|
 B|---------------------------------0-x-x-x-0-x-x-x-0-x-x-x-|
F#|-000-0-0-0--0-0--0-------000-0-0-0-x-x-x-0-x-x-x-0-x-x-x-|
 B|-000-0-0-0--0-0--0-0h1-1-000-0-0-0-x-x-x-0-x-x-x-0-x-x-x-|
    *** * * *  * *  *       *** * *

Riff 4   "I cannot believe in this thing you call trust..."
C#|---------------------------------------------------------|
G#|---------------------------------------------------------|
 E|-------10\9---9/10---10/14---14\9---9/10---10/12---12-12-|
 B|-0-----x--x---x-x----x--x----x--x---x-x----x--x----x--x--|
F#|-0-0-0-8\\7-0-7/8--0-8//12-0-12\7-0-7/8--0-8//10-0-10-10-|
 B|-0-0-0------0------0-------0------0------0-------0-------|
      * *      *      *       *      *      *       *

C#|--------------------------------------------------------|
G#|--------------------------------------------------------|
 E|---7-7---7/9-9------------------------------------------|
 B|---x-x---x-x-x---10-10-10-12-12-14-14-14-14-14-14-14-14-|
F#|-0-5-5-0-5/7-7-0-10-10-10-10-10-10-10-10-10-10-10-10-10-|
 B|-0-----0-------0-10-10-10-10-10-10-10-10-10-10-10-10-10-|

C#|---------------------------|
G#|---------------------------|
 E|---------------------------|
 B|-5-5-5-7-7-8-8-8-8-8-8-7-5-|
F#|-5-5-5-5-5-5-5-5-5-5-5-5-5-|
 B|-5-5-5-5-5-5-5-5-5-5-5-5-5-|

Repeat above again, then:

      "Just to watch it burn..."
C#|---------------------------------------------------------------|
G#|---------------------------------------------------------------|
 E|---------------------------------------------------------------|
 B|-8-8-8-10-10-12-12-12-12-12-12-12-12-5-5-5-7-7-8-8-8-8-8-8-8-8-|
F#|-8-8-8-8--8--8--8--8--8--8--8--8--8--5-5-5-5-5-5-5-5-5-5-5-5-5-|
 B|-8-8-8-8--8--8--8--8--8--8--8--8--8--5-5-5-5-5-5-5-5-5-5-5-5-5-|

Play Riff 2 x2   "Hope leaves me..."
Play Riff 3 x1
Play Riff 4 x2   "I cannot believe in this thing you call trust..."

Riff 5
C#|----------------------------------|
G#|----------------------------------|
 E|----------------------------------|
 B|----------------------------------|
F#|-2----------------/15-15---/14-14-|
 B|---3-2-1b-1b-1b-1--------1--------|

Play Riff 5 x4
Play Riff 3 x1

Riff 3 ending alteration:
C#|---------------------------|
G#|---------------------------|
 E|---------------------------|
 B|---------------------x-x-x-|
F#|-000-0-0-0--0-0--0-0-x-x-x-|
 B|-000-0-0-0--0-0--0-0-x-x-x-|
    *** * * *  * *  * *

Play Riff 4 x2   "I cannot believe in this thing you call trust..."
Play Riff 2 until end and fade out, played w/o palm mutes

Enjoy!!
comments
print report bad tab
I want to post or [tab]
guest
You may want to rate the tab now too:
select rating
Please do not post tabs as comments. Select "correction" instead!