Oops, an error
Loading. Please wait.

Sudah Ku Tahu Tab

version 1
version 1

Solo

Interactive

649 views 54 this week
no commentswrite comment
1 2 3 4 5
3 more votes to show rating
add to favorites
launch autoscroll
font size
0
reset
how to read this tab
guitar tuner
Autoscroll
slow
fast
+/-
esc
set tempo
stop
Help us to improve Ultimate-Guitar.com Take our survey!
×
Author
Difficulty
intermediate
Sudah Ku Tahu - PROJECTOR BAND
rwguitarzero@gmail.com

[Intro]

         Am             F             C            G     E
e|---------------------------------------------------------------------------|
B|---------------------------------------------------------------------------|
G|--------9-------------10-------9h10-12------9br--7-7-----------------------|
D|--10h12---------10h12----------------------------------9br-----------------|
A|---------------------------------------------------------------------------|
E|---------------------------------------------------------------------------|

Seringkali...


[Solo]

   |-------Sweep picking----------------------------|

    F                                                        C
e|--------------------------8h12/17-12---------------------------------------|
B|-----------------------10------------13p12----------------15b-13-15br-15br-|
G|--10p9---------------9---------------------14p12---------------------------|
D|-------10---------10-----------------------------15------------------------|
A|----------12-8h12----------------------------------------------------------|
E|---------------------------------------------------------------------------|

                Dm                                    Am
e|---------------------------------------------------------------------------|
B|--13--------------------10-9-----------------------------------------------|
G|---------/7-9-10--------X------10-9-------7b-5-7b--5-7bp5------------------|
D|-------------------------------x--------------------------7-5--------------|
A|--------------------------------------------------------------7-5\3--------|
E|--------------------------------------------------------------------5------|

    F                                                             C
e|--------------------------------5-7-8-7-8-10-8-10-12-10/12-----------------|
B|--------------------------5-6-8---------------------------------15b-13-15--|
G|--------------------4-5-7--------------------------------------------------|
D|--------------2-3-5--------------------------------------------------------|
A|--------2-3-5--------------------------------------------------------------|
E|--1-3-5--------------------------------------------------------------------|

                    Dm                        E
e|---------------------------------------------------------------------------|
B|--15b----------15-17b----17b-15-17-17b------19b--19b--19b---20b--22b---22b-|
G|-----------/14-------------------------------------------------------------|
D|---------------------------------------------------------------------------|
A|---------------------------------------------------------------------------|
E|---------------------------------------------------------------------------|

   |-----Fast picking-----|

e|---------------------------------------------------------------------------|
B|--22b-22b-22b-22b-22b-22b--------------------------------------------------|
G|---------------------------------------------------------------------------|
D|---------------------------------------------------------------------------|
A|---------------------------------------------------------------------------|
E|---------------------------------------------------------------------------|

Mengapa masih lagi ku...



************************************

| x   Dead note
| h   Hammer-on
| p   Pull-off
| r   Release
| b   Bend
| br  Bend release
| /   Slide up
| \   Slide down
| ~   Vibrato

************************************
Suggest correction
Give kudos to tab author, rate the tab!
1 2 3 4 5
comments
print report bad tab
guest
You may want to rate the tab now too:
select rating
Wanna post a correction for this tab? Suggest correction