Oops, an error
Loading. Please wait.

A Speculative Fiction tab

version 1
version 1

Whole song

Interactive

7,953 views 30 this week
5 commentsread comments
1 2 3 4 5
x 5
add to favorites
×
Save as Personal and add changes to this tab that will be seen only by you. Learn more ›
×
You can save this tab as Personal to edit and correct it or add notes. All changes will be seen only by you. Learn more »
launch autoscroll
font size
0
reset
how to read this tab
guitar tuner
edit
Autoscroll
slow
fast
+/-
esc
set tempo
stop
Author
Propagandhi - A Speculative Fiction

Tabbed by: Savas Varadas (samhain_138@hotmail.com)

Follow along with the song for the rythmn

[Intro] (clean)
E|-------------------------------------------------------------------||
B|--10--------------------10---------9h10p9---------10---------------||
G|--11--9-----------------11--9-------------11p9----11--9------------||
D|--11--9-------4-4-5-----11--9---------------------11--9---4-4-5----||
A|--9---9-----------------9---9---------------------9---9------------||
E|-------------------------------------------------------------------||

              (distortion)
E|-------------------------------------------------------------------||
B|-------------------------------------------------------------------||
G|----------------------3--------------------------------------------||
D|--5-5-4------5-2------3-2------------------------------------------||
A|-------------5-2------1-2------------------------------------------||
E|-------------3-0--------0------------------------------------------||


[Breakdown] (light distortion) Play twice
E|-------------------------------------------------------------------||
B|------------------3-------3----------------------------------------||
G|---0-------0--------0---0---0--------------------------------------||
D|-----4-5-----4-5---------------------------------------------------||
A|-3--------------------3-------3------------------------------------||
E|-------------------------------------------------------------------||


[Pre-verse] (distortion)
E|-------------------------------------------------------------------||
B|-------------------------------------------------------------------||
G|---------------3------------------3--------------------------------||
D|-5-2-----5-2---3-2----5-2---5-2---3-2---(breakdown pattern)--------||
A|-5-2-----5-2---1-2----5-2---5-2---1-2------------------------------||
E|-3-0-----3-0-----0----3-0---3-0-----0------------------------------||

E|-------------------------------------7-----------------------------||
B|----------------------------8--7-----------------------------------||
G|-------------3-----------7--------7-----7---7----------------------||
D|-5-2---5-2---3-2---5-2----------------------7----------------------||
A|-5-2---5-2---1-2---5-2----------------------5----------------------||
E|-3-0---3-0-----0---3-0---------------------------------------------||

[Verse 1]
E|-------------------------------------------------------------------||
B|-------------------------------------------------------------------||
G|-----------------------------------------------------------3-------||
D|-(break down pattern)--(pre-verse pattern)-x2--5-2---5-2---3-2--5-2||
A|-----------------------------------------------5-2---5-2---1-2--5-2||
E|-----------------------------------------------3-0---3-0-----0--3-0||

[Verse 2]
E|--7-------------7--------------------------------------------------||
B|--8-------------8-------7---------------------8-7------------------||
G|--9-------------9-------7----5-----------5----7-7--(repeat)--------||
D|--9-------------9-------7----5-----------5----7-7------------------||
A|--7--(7-7-7-7)--7-------5----3-(3-3-3-3)-3----5-5------------------||
E|-------------------------------------------------------------------||

E|-------------------------------------------------------------------||
B|-------------------------------------------------------------------||
G|---------------3--------------7-9-9-9-9-9-9-9-----7-9-9-9-9-9-9-9--||
D|-5-2----5-2----3-2----5-2------------------------------------------||
A|-5-2----5-2----1-2----5-2------------------------------------------||
E|-3-0----3-0------0----3-0------------------------------------------||

E|-------------------------------------------------------------------||
B|-------------------------------------------------------------------||
G|-7-9-9-9-9-9-9-9-----7-9-9-9-9-9-9-9-----7h9p7---------------------||
D|-----------------------------------------------9-7h9p7-------------||
A|-------------------------------------------------------7-----------||
E|-------------------------------------------------------------------||

Crazy part
E|-------------------------------------------------------------------||
B|-------------------------------------------------------------------||
G|-------------------------------------------------------------------||
D|-2-------2-----------2-2-------2-------2-------8---7---------------||
A|-2-------2-----------2-2-------2-------2-------8---7---------------||
E|-0-(0-0)-0-(0-0-0-0)-0-0-(0-0)-0-(0-0)-0-(0-0)-6---5---------------||

E|-------------------------------------------------------------------||
B|-------------------------------------------------------------------||
G|-------------------------------------------------------------------||
D|-2-------2-----------2-2-------2-------2-------8-7-------(repeat)--||
A|-2-------2-----------2-2-------2-------2-------8-7-----------------||
E|-0-(0-0)-0-(0-0-0-0)-0-0-(0-0)-0-(0-0)-0-(0-0)-6-5-----------------||

E|-------------------------------------------------------------------||
B|-------------------------------------------------------------------||
G|-------------------------------------------------------------------||
D|--8-7-5-7-----8-7-5-2----------------------------------------------||
A|--8-7-5-7-----8-7-5-2----------------------------------------------||
E|--6-5-3-5-----6-5-3-0----------------------------------------------||

[Bridge]
E|-------------------------------------------------------------------||
B|-------------------------------------------------------------------||
G|-------------------------------------------------------------------||
D|-------------------------------------------------------------------||
A|-------------------------------------------------------------------||
E|-12-0--10-10-12-0--10-10-12-0--12-0--10-10-12-0--10-10-12-0--12--0-||

E|-------------------------------------------------------------------||
B|-------------------------------------------------------------------||
G|-------------------------------------------------------------------||
D|-------------------------------------------------------------------||
A|-------------------------------------------------------------------||
E|-10--0-0-10-0--12-12--0-0--10-10--0-0-10-0---0---10---12--10-10-12-||

E|-------------------------------------------------------------------||
B|-------------------------------------------------------------------||
G|-------------------------------------------------------------------||
D|-------------------------------------------------------------------||
A|-------------------------------------------------------------------||
E|-0--12-0--10-10-12-0--10-10-12-0---12---0---10---0-0-10-0--12-12---||

E|-------------------------------------------------------------------||
B|-------------------------------------------------------------------||
G|-------------------------------------------------------------------||
D|-------------------------------------------------------------------||
A|-------------------------------------------------------------------||
E|-0-0--10-10--0-0-10-0----0-0--10-10-12-0--10-10-12-0---0-0--10-10--||

E|---------------------||
B|---------------------||
G|---------------------||
D|---------------------||
A|---------------------||
E|-12-0--10-10-12-0----||

E|-------------------------------------------------------------------||
B|-------------------------------------------------------------------||
G|-9------0---------9-----9-------9------0---------------------------||
D|-9------0---------9-----9-------9------0---------------------------||
A|-7--10--9---------7--5--7-------7--10--9---------------------------||
E|----0---10-----------0-------------0---10--------------------------||

Nuts
E|-------------------------------------------------------------------||
B|-------------------------------------------------------------------||
G|-------------------------------------------------------------------||
D|-------------------------------------------------------------------||
A|-------------------9--9--------9--9--------------9--9--------9--9--||
E|-pick slide--12-0--10-10-12-0--10-10-12-0--12-0--10-10-12-0--10-10-||

E|-------------------------------------------------------------------||
B|-------------------------------------------------------------------||
G|-------------------------------------------------------------------||
D|-------------------------------------------------------------------||
A|--------10-10-------9--9-------9---------10-10--9--9-------9-------||
E|-12-0---12-12--0-0--10-10--0-0-10-0--0-0-12-12--10-10--0-0-10-0----||

E|-------------------------------------------------------------------||
B|-------------------------------------------------------------------||
G|-------------------------------------------------------------------||
D|-------------------------------------------------------------------||
A|------9--9--------9--9--------------9--9--------9--9---------------||
E|-0-0--10-10-12-0--10-10-12-0--12-0--10-10-12-0--10-10-12-0---------||

E|-------------------------------------------------------------------||
B|-------------------------------------------------------------------||
G|-------------------------------------------------------------------||
D|-------------------------------------------------------------------||
A|-10-10------9--9-------9----------10-10--9--9-------9--------------||
E|-12-12--0-0-10-10--0-0-10-0--0-0--12-12--10-10--0-0-10-0-----------||

Full Chords Again
E|-------------------------------------------------------------------||
B|-------------------------------------------------------------------||
G|-9-----9------9------0------9-----9-----9------0-------------------||
D|-9-----9------9------0------9-----9-----9------0-------------------||
A|-7--5--7------7--10--9------7--5--7-----7--10--9-------------------||
E|----0------------0---10--------0-----------0---10------------------||

E|-------------------------------------------------------------------||
B|-------------------------------------------------------------------||
G|---5------0--------------------------------------------------------||
D|-2-5----2-7--------------------------------------------------------||
A|-2-3----2-5-----------------------9---9----------------------------||
E|-0------0-------(0-0-0-0-0-0-0-0)-10--10---------------------------||

Breakdown Guitar 1
E|-------------------------------------------------------------------||
B|-------------------------------------------------------------------||
G|-7-9-9-9-9-9-9-9---7-9-9-9-9-9-9-9---7-9-9-9-9-9-9-9---7-9-9-9-9-9-||
D|-------------------------------------------------------------------||
A|-------------------------------------------------------------------||
E|-------------------------------------------------------------------||

E|-------------------------------------------------------------------||
B|-------------------------------------------------------------------||
G|-9-9-9---7h9p7-----------------------------------------------------||
D|---------------9-7h9p7---------------------------------------------||
A|-----------------------7-------------------------------------------||
E|-------------------------------------------------------------------||

Breakdown Guitar 2
E|-------------------------------------------------------------------||
B|-------------------------------------------------------------------||
G|--9-9-9-9-9-9-9-9---11-11-11-11-11-11-11-11---12-12-12-12-12-12-12-||
D|-------------------------------------------------------------------||
A|-------------------------------------------------------------------||
E|-------------------------------------------------------------------||

E|-------------------------------------------------------------------||
B|-------------------------------------------------------------------||
G|-12---14-14-14-14-14-14-14-14---16-16-16-16-16-16-16-16------------||
D|-------------------------------------------------------------------||
A|-------------------------------------------------------------------||
E|-------------------------------------------------------------------||

E|-------------------------------------------------------------------||
B|-------------------------------------------------------------------||
G|-------------------------------------------------------------------||
D|-2-------2-----------2-2-------2-------2-------8---7---------------||
A|-2-------2-----------2-2-------2-------2-------8---7---------------||
E|-0-(0-0)-0-(0-0-0-0)-0-0-(0-0)-0-(0-0)-0-(0-0)-6---5---------------||

E|-------------------------------------------------------------------||
B|-------------------------------------------------------------------||
G|-------------------------------------------------------------------||
D|-2-------2-----------2-2-------2-------2-------8-7-----------------||
A|-2-------2-----------2-2-------2-------2-------8-7-----------------||
E|-0-(0-0)-0-(0-0-0-0)-0-0-(0-0)-0-(0-0)-0-(0-0)-6-5-----------------||

E|-------------------------------------------------------------------||
B|-------------------------------------------------------------------||
G|-------------------------------------------------------------------||
D|-2-------2-----------2-2-------2-------2-------8---7---------------||
A|-2-------2-----------2-2-------2-------2-------8---7---------------||
E|-0-(0-0)-0-(0-0-0-0)-0-0-(0-0)-0-(0-0)-0-(0-0)-6---5---------------||

E|-------------------------------------------------------------------||
B|-------------------------------------------------------------------||
G|-------------------------------------------------------------------||
D|-2-------2-----------2-2-------2-------2-------8-7-5-7----8-7-5-2--||
A|-2-------2-----------2-2-------2-------2-------8-7-5-7----8-7-5-2--||
E|-0-(0-0)-0-(0-0-0-0)-0-0-(0-0)-0-(0-0)-0-(0-0)-6-5-3-5----6-5-3-0--||



************************************

| h  Hammer-on
| p  Pull-off
| x  Dead note

************************************

            
            
Suggest correction
Creating personal tab
Creating personal tab
You can edit any tab online and save it as your Personal.

You can edit, replace or remove any tab part or add personal notes – all changes will be seen only by you.

Personal tabs can be accessed anytime from any device, even offline.
Learn more »
comments
print report bad tab
5 comments total. Showing first comments.
0 reply
ohp-kyle 562 May 11, 2006 04:07 PM

I've been using this tab and playing along, and I don't think that F#5 (-9111110-) is right. It sounds more like an E5 (-7998-). There's also a live video of Propagandhi playing this, and it looks like Chris is playing the first two notes of a regular G chord in the... verse, I guess you could call it (32----).

Great tab!

0 reply
AmishPhonebooks 10 Jul 04, 2006 08:22 PM

I have a "correction" to offer...just in the intro, I found the rest to be pretty accurate.

E|-------------------------------------------------------------------||
B|--10--------------------10---------9h10p9---------10---------------||
G|--11--9-----------------11--9-------------11p9----11--9------------||
D|--11--9-----*-4-4-5-*---11--9---------------------11--9-*-4-4-5-*--||
A|--9---9-------3-3-3-----9---9---------------------9---9---3-3-3----||
E|--------------2-2-3---------------------------------------2-2-3---||

To me, the parts between the * have a much fuller sound when played like that.

0 reply
AmishPhonebooks 10 Aug 22, 2006 01:10 PM

Also the other guy is right about it being E and not F#.

guest
You may want to rate the tab now too:
select rating
Wanna post a correction for this tab? Suggest correction