Oops, an error
Loading. Please wait.

Anti Manifesto Tab

version 1
version 1

Whole song

Interactive

4,760 views 15 this week
no commentswrite comment
1 2 3 4 5
please rate
add to favorites
launch autoscroll
font size
0
reset
how to read this tab
guitar tuner
Tab Pro tools
  • play this tab
  • loop segment
  • change instrument
  • show fretboard
  • metronome
×
Best way to learn
"Anti Manifesto"
Autoscroll
slow
fast
+/-
esc
set tempo
stop
-------------------------------------------------------------------------------
                            Anti-Manifesto - Propagandhi
-------------------------------------------------------------------------------

By:Jens Zimmermann (Ganz_normaler_Wahnsinn@gmx.de)

Key:
Slide            s
Muffled Strings  X


Intro I: 

e|------------------------|       |--------------------------|
B|------------------------|       |--------------------------|
G|------------------------|       |-s12-12--12-12-12--12-12--|
D|-5-5-5-xxx-5-5-5-5-5-5--| x3    |-s12-12--12-12-12--12-12--|
A|-5-5-5-xxx-5-5-5-5-5-5--|       |-s10-10--10-10-10--10-10--|
E|-3-3-3 xxx-3-3-3-3-3-3--|       |--------------------------|

Riff I:
Listen carefully to the bass. He sometimes copies the guitar part and changes
than into a bass part. Don`t be irritated. The first time only the guitar plays
the riff.

e|-7-7--7-7-8-7-8-7----7-8-7-------------12-15-12-15-12-15-12--------------------|
B|-8-8--8-8-8-8-8-8--8-8-8-8-7-7-7-7--13-13-13-13-13-13-13-13--7-7-8-7-----------|
G|-------------------9-------7-7-7-7--14-----------------------7-7-7-7--7-7-7-5--|
D|----------------------------------------------------------------------7-7-7-5--| x2
A|----------------------------------------------------------------------5-5-5-3--|
E|-------------------------------------------------------------------------------|

Vers:
"Dance and laugh and play......"

e|-3---(7)-----------------|
B|-3----8------------------|
G|-0--9-9--s2--7--7-7-7-7--|
D|-0--9-9--s2--7--7-7-7-7--| x3
A|----7----s0--5--5-5-5-3--|
E|-------------------------|

e|-3---(7)-----------------------------------------------------------|
B|-3----8------------------------------------------------------------|
G|-0--9-9--5-5-5-5-5-7-7-7-7-7-------9-9-9-------9-9-9-s5-5-5-5-5-7--|
D|-0--9-9--5-5-5-5-5-7-7-7-7-7-2-2-2-9-9-9-------9-9-9-s5-5-5-5-5-7--|
A|----7----3-3-3-3-3-5-5-5-5-5-2-2-2-7-7-7-2-2-2-7-7-7-s3-3-3-3-3-5--|
E|-----------------------------0-0-0-------0-0-0---------------------|
            Play this part faster and use lots of p.m.                            


Bridge/Verse:
Chris plays the riff two times without singing.
"Witness this pair in accomplice......."

a)
e|-----------------------------------------------|
B|-----------------------------------------------|
G|---------------------5-5-5-5-5-5-5-5-5-5-5-5-5-|
D|-5-5-5-5-5-5-5-5-5-5-5-5-5-5-5-5-5-5-5-5-5-5-5-| x4
A|-5-5-5-5-5-5-5-5-5-5-3-3-3-3-3-3-3-3-3-3-3-3-3-|
E|-3-3-3-3-3-3-2-2-3-3-3-------------------------|
         
b)
"No brows furrowed in question,...."

e|------------------------|
B|------------------------|
G|-2-2--2-2--5-5-5-7-7-7--|
D|-2--2-2--2-5-5-5-7-7-7--| x1
A|-0----0----3-3-3-5-5-5--|
E|------------------------|
  
Bridge/Verse x4 + b) x1 


Interlude:
Play this part as fast as you can. The first chord is played p.m.
Don`t be irritated by the 
bass.

a)
e|------------------------------------------------------|
B|------------------------------------------------------|
G|-------------------------------6----------------------|
D|-----5--------5-5-5--------7-7-4-5p4-----5-5-5--------| x7
A|-5-5-2-3p2p0--3-3-2-3p2p0--5-5-------h5--3-3-2-3p2p0--|
E|-3-3--------------------------------------------------|

b)
e|----------------------------------------|
B|---------------------------7*-----------|
G|------------------------------7*----5*--|
D|-----5--------5-5-5--------------7*-----| x1
A|-5-5-2-3p2p0--3-3-2-3p2p0---------------|
E|-3-3----------------------------------- |


Bridge/Vers: a) x2 + b) x3

Interlude II:
Play two times the Interlude (a) and add this part at the end

e|-------------------------------------------------------|
B|-------------------------------------------------------|
G|-------------------------------6----------0h4h7--------|
D|-----5--------5-5-5--------7-7-4-7--0h4h7-------0h4p0--|
A|-5-5-2-3p2p0--3-3-2-3p2p0--5-5---5---------------------|
E|-3-3---------------------------------------------------|


Verse + Solo:
I only tabbed out the chords.

e|-------------------------------------------------------------------------------------|
B|-------------------------------------------------------------------------------------|
G|-12-12-12-12-12-12-12-12-12-----------------------9-9-9-------9-9-9-5-5-5-5-5-5-5-5--|
D|-12-12-12-12-12-12-12-12-12-4-4-7-4-4-4-7-4-2-2-2-9-9-9-2-2-2-9-9-9-5-5-5-5-5-5-5-5--| x4
A|-10-10-10-10-10-9--9--10-10-5-5-5-5-5-5-5-5-2-2-2-7-7-7-2-2-2-7-7-7-3-3-3-3-3-3-3-3--|
E|--------------------------------------------0-0-0-------0-0-0------------------------|

Play at the end Riff I one time and add at the end an E5.

e|---|
B|---|
G|---|
D|-2-|
A|-2-|
E|-0-|

Use lots of p.m. and stops. Slide everytime if it`s possible.
===============================================================================
comments
We did not receive enough feedback on this tab! Please rate:
print report bad tab
1 2 3 4 5
I want to post or [tab]
guest
You may want to rate the tab now too:
select rating
Please do not post tabs as comments. Select "correction" instead!