Oops, an error
Loading. Please wait.

Less Talk More Rock album tab

version 1
version 1

Album

Interactive

11,543 views 15 this week
3 commentsread comments
1 2 3 4 5
x 5
add to favorites
×
Save as Personal and add changes to this tab that will be seen only by you. Learn more ›
×
You can save this tab as Personal to edit and correct it or add notes. All changes will be seen only by you. Learn more »
launch autoscroll
font size
0
reset
how to read this tab
guitar tuner
edit
Autoscroll
slow
fast
+/-
esc
set tempo
stop
Band: Propagandhi
Album: Less Talk, More Rock (Fat Wreck Chords, 1996)

This guitar tab is intended for www.ultimate-guitar.com

12/3/07

Key:
v: vibrato
h: hammer-on
p: pull-off
*: natural harmonic
\: slide up
/: slide down
X: mute

Check the comments in case I find any errors that need to be corrected.

Track listing: 

1. Apparently, I'm a "P.C. Fascist" (Because I care about Both Human and Non-Human Animals)

2. Nailing Descartes to the Wall/(Liquid) Meat is Still Murder

3. Less Talk, More Rock

4. Anchorless

5. Rio de San Atlanta, Manitoba

6. A Public Dis-service Announcement From Shell

7. ...And We Thought That Nation-States Were a Bad Idea

8. I Was Pre-Teen McCarthyist

9. Resisting Tyrannical Government

10. Gifts

11. The Only good Fascist is a Very Dead Fascist

12. A People's History of the World

13. The State Lottery

14. Refusing to be a Man
______________________________________________________________

Track 1: Apparently I'm a "P.C. Fascist" (Because I Care About Both Human and Non-Human Animals)

Intro:
E|---------------------------------------------------------------------|
B|-3-------------------------------------------------------------------|
G|-0-----------------------------12*-----------------------------------|
D|-0---------------------------------12*-------------------------------|
A|-x-------------------------------------10----------------------------|
E|-3-------------------------------------------------------------------|

Verse:
(0:08)
E|---------------------------------------------------------------------|
B|---------------------------------------------------------------------|
G|--------------5--5-5-------------------------------------------------|
D|-5-5-5-3--3-3-5--5-5-3--3-3-3----------------------------------------|
A| 5-5-5-3--3-3-3--3-3-3--3-3-3----------------------------------------|
E|-3-3-3-1--1-1--------1--1-1-1----------------------------------------| x4

Pre-chorus:
(0:17)
E|---------------------------------------------------------------------|
B|---------------------------------------------------------------------|
G|-5-5-5-5--5-5-5--7-7-7-7--7-7-7--------------5--5-5------------------|
D|-5-5-5-5--5-5-5--7-7-7-7--7-7-7-5-5-5-3--3-3-5--5-5-3--3-3-3---------|
A|-3-3-3-3--3-3-3--5-5-5-5--5-5-5-5-5-5-3--3-3-3--3-3-3--3-3-3---------|
E|--------------------------------3-3-3-1--1-1--------1--1-1-1---------| x2

(0:26)
E|---------------------------------------------------------------------|
B|---------------------------------------------------------------------|
G|--------------5--5-5-------------------------------------------------|
D|-5-5-5-3--3-3-5--5-5-3--3-3-3----------------------------------------|
A| 5-5-5-3--3-3-3--3-3-3--3-3-3----------------------------------------|
E|-3-3-3-1--1-1--------1--1-1-1----------------------------------------| 

Chorus:
(0:28)
E|---------------------------------------------------------------------|
B|-----------------------------------3---------------------------------|
G|-7--7--7-7-7--7-7-7-7-7------------0---------------------------------|
D|-7--7--7-7-7--7-7-7-7-7-2-3--------0---------------------------------|
A|-5--5--5-5-5--5-5-5-5-5-2-3--------x---------------------------------|
E|------------------------0-1--------3---------------------------------| x2
Pick slide after the second time.

Verse 2:
(0:50)
E|---------------------------------------------------------------------|
B|---------------------------------------------------------------------|
G|--------------5--5-5-------------------------------------------------|
D|-5-5-5-3--3-3-5--5-5-3--3-3-3----------------------------------------|
A| 5-5-5-3--3-3-3--3-3-3--3-3-3----------------------------------------|
E|-3-3-3-1--1-1--------1--1-1-1----------------------------------------| x4

Pre-chorus 2:
(0:59)
E|---------------------------------------------------------------------|
B|---------------------------------------------------------------------|
G|-5-5-5-5--5-5-5--7-7-7-7--7-7-7--------------5--5-5------------------|
D|-5-5-5-5--5-5-5--7-7-7-7--7-7-7-5-5-5-3--3-3-5--5-5-3--3-3-3---------|
A|-3-3-3-3--3-3-3--5-5-5-5--5-5-5-5-5-5-3--3-3-3--3-3-3--3-3-3---------|
E|--------------------------------3-3-3-1--1-1--------1--1-1-1---------| x2

(1:08)
E|---------------------------------------------------------------------|
B|---------------------------------------------------------------------|
G|--------------5--5-5-------------------------------------------------|
D|-5-5-5-3--3-3-5--5-5-3--3-3-3----------------------------------------|
A| 5-5-5-3--3-3-3--3-3-3--3-3-3----------------------------------------|
E|-3-3-3-1--1-1--------1--1-1-1----------------------------------------|

Chorus 2:
(1:10)
E|---------------------------------------------------------------------|
B|-----------------------------------3---------------------------------|
G|-7--7--7-7-7--7-7-7-7-7------------0---------------------------------|
D|-7--7--7-7-7--7-7-7-7-7-2-3--------0---------------------------------|
A|-5--5--5-5-5--5-5-5-5-5-2-3--------x---------------------------------|
E|------------------------0-1--------3---------------------------------| x2

Outro:
(1:27)
E|---------------------------------------------------------------------|
B|-------------------3-------------------------------------------------|
G|-3-----------------0--------3-----------------5--------7-------------|
D|-3--------3--------0--------3--------3--------5--------7--------8----|
A|-1--------3--------x--------1--------3--------3--------5--------8----|
E|----------1--------3-----------------1--------------------------6----|

(1:47). End.

Track 2: Nailing Descartes to the Wall/(Liquid) Meat is Still Murder

Verse:
(0:01)
E|---------------------------------------------------------------------|
B|---------------------------------------------------------------------|
G|-------------------------------------------------7-7-7--8-8-8--8-8-8-|
D|-5--------5--7--8-8--8-8-8--7-7-7--7-7-7--5-5-5--8-8-8--8-8-8--8-8-8-|
A|-5--------5--8--8-8--8-8-8--8-8-8--8-8-8--5-5-5--5-5-5--6-6-6--6-6-6-|
E|-3--------3--5--6-6--6-6-6--5-5-5--5-5-5--3-3-3----------------------|

(0:08)
E|---------------------------------------------------------------------|
B|---------------------------------------------------------------------|
G|--------7-7-7--8-8-8--8-8-8------------------------------------------|
D|-5-5-5--8-8-8--8-8-8--8-8-8------------------------------------------|
A|-5-5-5--5-5-5--6-6-6--6-6-6------------------------------------------|
E|-3-3-3---------------------------------------------------------------|

(0:10)
E|---------------------------------------------------------------------|
B|---------------------------------------------------------------------|
G|-------------------------------------------------7-7-7--8-8-8--8-8-8-|
D|-5--------5--7--8-8--8-8-8--7-7-7--7-7-7--5-5-5--8-8-8--8-8-8--8-8-8-|
A|-5--------5--8--8-8--8-8-8--8-8-8--8-8-8--5-5-5--5-5-5--6-6-6--6-6-6-|
E|-3--------3--5--6-6--6-6-6--5-5-5--5-5-5--3-3-3----------------------|


(0:16)
E|---------------------------------------------------------------------|
B|---------------------------------------------------------------------|
G|--------7-7-7--8-8-8--8-8-8--8-8--------8----------------------------|
D|-5-5-5--8-8-8--8-8-8--8-8-8--8-8--------8----------------------------|
A|-5-5-5--5-5-5--6-6-6--6-6-6--6-6--------6----------------------------|
E|-3-3-3---------------------------------------------------------------|

Bridge:
(0:22)
E|---------------------------------------------------------------------|
B|---------------------------------------------------------------------|
G|-----------------------------------------8-8-8--8-8-8----------------|
D|-8-8--8-8-8--7-7-7--7-7-7--5-5-5--5-5-5--8-8-8--8-8-8----------------|
A|-8-8--8-8-8--8-8-8--8-8-8--5-5-5--5-5-5--6-6-6--6-6-6----------------|
E|-6-6--6-6-6--5-5-5--5-5-5--3-3-3--3-3-3------------------------------|

(0:26)
E|---------------------------------------------------------------------|
B|---------------------------------------------------------------------|
G|--------------------------------------7--8-8-8--8-8-8----------------|
D|-8-8--8-8-8--7-7-7--7-7-7--5-5-5--5-5-8--8-8-8--8-8-8----------------|
A|-8-8--8-8-8--8-8-8--8-8-8--5-5-5--5-5-5--6-6-6--6-6-6----------------|
E|-6-6--6-6-6--5-5-5--5-5-5--3-3-3--3-3--------------------------------|

(0:30)
E|---------------------------------------------------------------------|
B|---------------------------------------------------------------------|
G|---------------------------------------------------------------------|
D|-8-8--8-8-8--7-7-7--7-7-7--5-5--------3------------------------------|
A|-8-8--8-8-8--8-8-8--8-8-8--5-5--------3------------------------------|
E|-6-6--6-6-6--5-5-5--5-5-5--3-3--------1------------------------------|

Outro:
(0:37)
E|-------------------------------------------------------3-------------|
B|-------------------------------------------------------3-------------|
G|-8--8-8--8-8--8--8--8----------------------------------0------7--5--7|
D|-8--8-8--8-8--8--8--8--3-------------------------------0------7--5--7|
A|-6--6-6--6-6--6--6--6--3--3-3-3-3-3-3-3-3-3-3-3-3-3-3--2------5--3--5|
E|-----------------------1--1-1-1-1-1-1-1-1-1-1-1-1-1-1--3-------------|
Palm mute the power chords without high octave notes here.

(0:43)
E|------------------------------------------------3--------------------|
B|------------------------------------------------3--------------------|
G|-8-8--8-8-8---8---------------------------------0------7--5--7-------|
D|-8-8--8-8-8---8-3-------------------------------0------7--5--7-------|
A|-6-6--6-6-6---6-3--3-3-3-3-3-3-3-3-3-3-3-3-3-3--2------5--3--5-------|
E|----------------1--1-1-1-1-1-1-1-1-1-1-1-1-1-1--3--------------------| x2
Palm mute the power chords without high octave notes here.

(0:56)

E|---------------------------------------------------------------------|
B|---------------------------------------------------------------------|
G|-8-8--8-8-8--8-10----------------------------------------------------|
D|-8-8--8-8-8--8-10-------5--5-----------------------------------------|
A|-6-6--6-6-6--6-8--------5--5-----------------------------------------|
E|------------------------3--3-----------------------------------------|

(1:04). End.

Track 3: Less Talk, More Rock

Intro:
E|---------------------------------------------------------------------|
B|-----------------------------------------7--6--4---------------------|
G|-------------6-6-6--6-6-6--4-4-4--4-4-4--6--5--3----4----------------|
D|-6-6--6-6-6--6-6-6--6-6-6--4-4-4--4-4-4--4--3--1----4----------------|
A|-6-6--6-6-6--4-4-4--4-4-4--2-2-2--2-2-2-------------2----------------|
E|-4-4--4-4-4----------------------------------------------------------|

Verse:
(0:07)
E|---------------------------------------------------------------------|
B|---------------------------------------------------------------------|
G|--------4-4-4---------8-8-8--6-6-6--4-4-4--6-6-6--8-8-8--4-4-4--6-6-6|
D|-4-4-4--4-4-4--4-4-4--8-8-8--6-6-6--4-4-4--6-6-6--8-8-8--4-4-4--6-6-6|
A|-4-4-4--2-2-2--4-4-4--6-6-6--4-4-4--2-2-2--4-4-4--6-6-6--2-2-2--4-4-4|
E|-2-2-2---------2-2-2-------------------------------------------------| x2

(0:31)
E|---------------------------------------------------------------------|
B|---------------------------------------------------------------------|
G|--------4-4-4---------8-8-8--6-6-6--4-4-4--9--9--9-9-9---------------|
D|-4-4-4--4-4-4--4-4-4--8-8-8--6-6-6--4-4-4--9--9--9-9-9---------------|
A|-4-4-4--2-2-2--4-4-4--6-6-6--4-4-4--2-2-2--7--7--7-7-7---------------|
E|-2-2-2---------2-2-2-------------------------------------------------|

(0:39)
E|------------------------------9--------------------------------------|
B|--------------------------------9------------------------------------|
G|-11---11-11--11-11-11-11----------11---------------------------------|
D|-11---11-11--11-11-11-11---------------------------------------------|
A|-9----9--9---9--9--9--9----------------------------------------------|
E|---------------------------------------------------------------------|

Verse:
(0:42)
E|---------------------------------------------------------------------|
B|---------------------------------------------------------------------|
G|--------4-----------------------------8--------6---------------------|
D|-4-4-4--4-4-4-4-4-4-4--4--------------8-8-8-8--6-6-6-----------------|
A|-4-4-4--2-2-2-2-2-2-2--4-4-4-4-4-4-4--6-6-6-6--4-4-4-----------------|
E|-2-2-2-----------------2-2-2-2-2-2-2---------------------------------|
Palm mute the power chords without high octave notes here.

(0:48)
E|---------------------------------------------------------------------|
B|---------------------------------------------------------------------|
G|-4------------6------------8---------------------8-6-----------------|
D|-4-4-4-4-4-4--6-6-6-6-6-6--8-8-8-8-8-8-8-8-8-8-8-8-6-----------------|
A|-2-2-2-2-2-2--4-4-4-4-4-4--6-6-6-6-6-6-6-6-6-6-6-6-4-----------------|
E|---------------------------------------------------------------------|
Palm mute the power chords without high octave notes here.

(0:54)
E|---------------------------------------------------------------------|
B|---------------------------------------------------------------------|
G|-4------------6------------8---------------------8-6--7----4---------|
D|-4-4-4-4-4-4--6-6-6-6-6-6--8-8-8-8-8-8-8-8-8-8-8-8-6--7----4---------|
A|-2-2-2-2-2-2--4-4-4-4-4-4--6-6-6-6-6-6-6-6-6-6-6-6-4--5----2---------|
E|---------------------------------------------------------------------|
Palm mute the power chords without high octave notes here.

Bridge:
(1:03)
E|-----------9-------------------9-------------------9-----------------|
B|-------7-------------------7-------------------7---------------------|
G|-----6---6---------------6---6---------------6---6----8-8-8----------|
D|-6-8----------4-4-4--6-8----------4-4-4--6-8----------8-8-8----------|
A|--------------4-4-4---------------4-4-4---------------6-6-6----------|
E|--------------2-2-2---------------2-2-2------------------------------|

(1:12)
E|-----------9-------------------9-------------------9-----------------|
B|-------7-------------------7-------------------7---------------------|
G|-----6---6----8-8-8------6---6----4-4-4------6---6----4-4-4----------|
D|-6-8----------8-8-8--6-8----------4-4-4--6-8----------4-4-4----------|
A|--------------6-6-6---------------2-2-2---------------2-2-2----------|
E|---------------------------------------------------------------------|

Outro:
(1:21)
E|---------------------------------------------------------------------|
B|---------------------------------------------------------------------|
G|---------------------------------------------------------------------|
D|-4-------------------------------------------------------------------|
A|-4-4-4-4-4-4-4-4-4-4-4-4-4-4-4-4-4-4-4-4-4-4-4-4-4-4-4-4-4-4-4-4-----|
E|-2-2-2-2-2-2-2-2-2-2-2-2-2-2-2-2-2-2-2-2-2-2-2-2-2-2-2-2-2-2-2-2-----|
Palm mute the power chords without high octave notes here.

(1:27)
E|---------------------------------------------------------------------|
B|---------------------------------------------------------------------|
G|----------4----------8-8-8--6--6-6--4-4-4--6----6--------------------|
D|-4-4-4----4----4--4--8-8-8--6--6-6--4-4-4--6----6----4---------------|
A|-4-4-4----2----4--4--6-6-6--4--4-4--2-2-2--4----4----4---------------|
E|-2-2-2---------2--2----------------------------------2---------------|

(1:37). End.

Track 4: Anchorless

Intro:
E|---------------------------------------------------------------------|
B|---------------------------------------------------------------------|
G|-7-------------------------------------------------------------------|
D|-7-7-7-7-7-7-7-7-----------------------------------------------------|
A|-5-5-5-5-5-5-5-5--9-9-9-9-9-9-9-9--7-7-7-7-7-7-7-7--9-9-9-9-9-9-9-9--|
E|------------------7-7-7-7-7-7-7-7--5-5-5-5-5-5-5-5--7-7-7-7-7-7-7-7--| x2
Palm mute the power chords without high octave notes here.
When playing this part the second time, mute the first D5 chord. 

(0:11)
E|---------------------------------------------------------------------|
B|---------------------------------------------------------------------|
G|-7--------7----------7------7----------------------------------------|
D|-7----------7----------7------7--------------------------------------|
A|-5-----------------------5------5------------------------------------|
E|---------------------------------------------------------------------|

Chorus:
(0:22)
E|---------------------------------------------------------------------|
B|---------------------------------------------------------------------|
G|-7-7-7---------------------------------------------------------------|
D|-7-7-7-7--7-7-5--5-5-5-----5-----------------------------------------|
A|-5-5-5-7--7-7-5--5-5-5-5-5-5-----------------------------------------|
E|-------5--5-5-3--3-3-3-3-3-3-----------------------------------------| x3
Palm mute the power chords without high octave notes here.

(0:30)
E|---------------------------------------------------------------------|
B|---------------------------------------------------------------------|
G|-7-7-7---------------------------------------------------------------|
D|-7-7-7-7--7-7-5--5-5-2-----------------------------------------------|
A|-5-5-5-7--7-7-5--5-5-2-----------------------------------------------|
E|-------5--5-5-3--3-3-0-----------------------------------------------|

Verse:
(0:33)
E|---------------------------------------------------------------------|
B|-7-7-7-7-7-7-7---------------------7-7-7-3-3-3-3-3-3-3-3-3-3-5-5-5---|
G|-7-7-7-7-7-7-7-6-6-6-6-6-6-6-6-6-6-7-7-7-4-4-4-4-4-4-4-4-4-4-6-6-6---|
D|-7-------------7-7-7-7-7-7-7-7-7-7-7-----5-------------------7-7-7---|
A|---------------9-----------------------------------------------------|
E|---------------------------------------------------------------------|
You know the palm muting.

(0:38)
E|---------------------------------------------------------------------|
B|-7-7-7-7-7-7-7---------------------7-7-7-3-3-3-3-3-------------------|
G|-7-7-7-7-7-7-7-6-6-6-6-6-6-6-6-6-6-7-7-7-4-4-4-4-4-------------------|
D|-7-------------7-7-7-7-7-7-7-7-7-7-7-----5-------------7-7-----5-5---|
A|---------------9-----------------------------------7-7-7-7-5-5-5-5---|
E|---------------------------------------------------5-5-5-5-3-3-3-3---|
You know the palm muting.

(0:43)
E|---------------------------------------------------------------------|
B|-7-7-7-7-7-7-7---------------------7-7-7-3-3-3-3-3-3-3-3-3-3---------|
G|-7-7-7-7-7-7-7-6-6-6-6-6-6-6-6-6-6-7-7-7-4-4-4-4-4-4-4-4-4-4---------|
D|-7-------------7-7-7-7-7-7-7-7-7-7-7-----5-------------------7-7-7---|
A|---------------9---------------------------------------------7-7-7---|
E|-------------------------------------------------------------5-5-5---|
You know the palm muting.

(0:49)
E|---------------------------------------------------------------------|
B|-7-7-7-7-7-7-7---------------------7-7-7-3-3-3-3-3-------------------|
G|-7-7-7-7-7-7-7-6-6-6-6-6-6-6-6-6-6-7-7-7-4-4-4-4-4-------------------|
D|-7-------------7-7-7-7-7-7-7-7-7-7-7-----5-------------7------5------|
A|---------------9-----------------------------------7-7-7--5-5-5------|
E|---------------------------------------------------5-5-5--3-3-3------|
You know the palm muting.

Chorus 2:
(0:54)
E|---------------------------------------------------------------------|
B|---------------------------------------------------------------------|
G|-7-7-7---------------------------------------------------------------|
D|-7-7-7-7--7-7-5--5-5-5-----5-----------------------------------------|
A|-5-5-5-7--7-7-5--5-5-5-5-5-5-----------------------------------------|
E|-------5--5-5-3--3-3-3-3-3-3-----------------------------------------| x3
Palm mute the power chords without high octave notes here.

(1:02)
E|---------------------------------------------------------------------|
B|---------------------------------------------------------------------|
G|-7-7-7---------------9--9-9------------------------------------------|
D|-7-7-7-7--7-7-5--5-5-9--9-9------------------------------------------|
A|-5-5-5-7--7-7-5--5-5-7--7-7------------------------------------------|
E|-------5--5-5-3--3-3-------------------------------------------------|

Bridge:
(1:05)
E|--------------7--7-7-------------------------------------------------|
B|--------------7--7-7----------8-8-8-8-8-8-8-8-8-8-8-8-8--------------|
G|-7-7-7--------7--7-7----------7-7-7-7-7-7-7-7-7-7-7-7-7--------------|
D|-7-7-7-2--2-2-9--9-9-2--2-2-2-5-5-5-5-5-5-5-5-5-5-5-5-5-2-2-2--------|
A|-5-5-5-4--4-4-9--9-9-4--4-4-4---------------------------4-4-4--------|
E|-------5--5-5-7--7-7-5--5-5-5---------------------------5-5-5--------|

(1:10)
E|--------------7--7-7-7-----------------------------------------------|
B|--------------7--7-7-7-----8-8-8-7-7-7-8-8-8-7-7-7-------------------|
G|-7-7-7--------7--7-7-7-----7-7-7-7-7-7-7-7-7-7-7-7-------------------|
D|-7-7-7-2--2-2-9--9-9-9--2--5-5-5-5-5-5-5-5-5-5-5-5--2-2-2-2----------|
A|-5-5-5-4--4-4-9--9-9-9--4---------------------------4-4-4-4----------|
E|-------5--5-5-7--7-7-7--5---------------------------5-5-5-5----------|

(1:16)
E|--------------7--7-7-------------------------------------------------|
B|--------------7--7-7----------8-8-8-8-8-8-8-8-8-8-8-8-8--------------|
G|-7-7-7--------7--7-7----------7-7-7-7-7-7-7-7-7-7-7-7-7--------------|
D|-7-7-7-2--2-2-9--9-9-2--2-2-2-5-5-5-5-5-5-5-5-5-5-5-5-5-2-2-2--------|
A|-5-5-5-4--4-4-9--9-9-4--4-4-4---------------------------4-4-4--------|
E|-------5--5-5-7--7-7-5--5-5-5---------------------------5-5-5--------|

(1:21)
E|--------------7--7-7-7-----------------------------------------------|
B|--------------7--7-7-7-----8-8-8-7-7-7-8-8-8-7-7-7-------------------|
G|-7-7-7--------7--7-7-7-----7-7-7-7-7-7-7-7-7-7-7-7-------------------|
D|-7-7-7-2--2-2-9--9-9-9--2--5-5-5-5-5-5-5-5-5-5-5-5--2-2-2-2----------|
A|-5-5-5-4--4-4-9--9-9-9--4---------------------------4-4-4-4----------|
E|-------5--5-5-7--7-7-7--5---------------------------5-5-5-5----------|

Chorus 3:
(1:27)
E|---------------------------------------------------------------------|
B|---------------------------------------------------------------------|
G|-7-7-7---------------------------------------------------------------|
D|-7-7-7-7--7-7-5--5-5-5-----5-----------------------------------------|
A|-5-5-5-7--7-7-5--5-5-5-5-5-5-----------------------------------------|
E|-------5--5-5-3--3-3-3-3-3-3-----------------------------------------| x2
Palm mute the power chords without high octave notes here.

(1:35)
E|---------------------------------------------------------------------|
B|---------------------------------------------------------------------|
G|-7-7-7---------------7-----------------------------------------------|
D|-7-7-7-7--7-7-5--5-5-7--2-2------------------------------------------|
A|-5-5-5-7--7-7-5--5-5-5--2-2------------------------------------------|
E|-------5--5-5-3--3-3----0-0------------------------------------------|

(1.39). End.

Track 5: Rio de San Atlanta, Manitoba

E|---------------------------------------------------------------------|
B|---------------------------------------------------------------------|
G|---------------------------------------------------------------------|
D|-7-------------------------------------------------------------------|
A|-7-------------------------------------------------------------------|
E|-5-------------------------------------------------------------------|
                                             Pick slide
Verse:
(0:04)
E|---------------------------------------------------------------------|
B|---------------------------------------------------------------------|
G|----------8-8-8--8-8-8--8-7-8----------------------------------------|
D|-(7)-7-7--8-8-8--8-8-8--8-7-8----------------------------------------|
A|-(7)-7-7--6-6-6--6-6-6--6-5-6----------------------------------------|
E|-(5)-5-5-------------------------------------------------------------| x4
Don't play the chord in parenthesis the first time.

Chorus:
(0:12)
E|---------------------------------------------------------------------|
B|--------------------------------------------------5-5-5--------------|
G|------3-3-3--6-6-6--6-------3-------3-3-3--3-3-3--4-4-4--------------|
D|-2-2--3-3-3--6-6-6--6-3--4--3--2-2--3-3-3--3-3-3--2-2-2--------------|
A|-2-2--1-1-1--4-4-4--4-3--4--1--2-2--1-1-1--1-1-1---------------------|
E|-0-0------------------1--2-----0-0-----------------------------------|

(0:16)
E|---------------------------------------------------------------------|
B|---------------------------------------------------------------------|
G|------3-3-3--6-6-6--6-------3-------3-3-3--3-3-3---------------------|
D|-2-2--3-3-3--6-6-6--6-3--4--3--2-2--3-3-3--3-3-3---------------------|
A|-2-2--1-1-1--4-4-4--4-3--4--1--2-2--1-1-1--1-1-1---------------------|
E|-0-0------------------1--2-----0-0-----------------------------------|

Bridge:
(0:20)
E|---------------------------------------------------------------------|
B|---------------------------------------------------------------------|
G|-(9)-9-9--9-9-9--9-9-9--9-9-9----------------------------------------|
D|-(9)-9-9--9-9-9--9-9-9--9-9-9--8-8-8--8-8-8--8-8-8--8-8-8------------|
A|-(7)-7-7--7-7-7--7-7-7--7-7-7--x-x-x--x-x-x--x-x-x--x-x-x------------|
E|-----------------0-0-0--0-0-0--6-6-6--6-6-6--6-6-6--6-6-6------------| x4
Don't play the chord in parenthesis the first time.

Outro:
(0:36)
E|---------------------------------------------------------------------|
B|---------------------------------------------------------------------|
G|--------3-3-3--6-6-6--6-------3--------------------------------------|
D|-2-2-2--3-3-3--6-6-6--6-3--4--3--------------------------------------|
A|-2-2-2--1-1-1--4-4-4--4-3--4--1--------------------------------------|
E|-0-0-0------------------1--2-----------------------------------------|

(0:39) End.

Track 6: A Public Dis-Service Announcement from Shell

... Go look for a bass tab.

Track 7: ...And We Thought That Nation-States Were a Bad Idea

Intro:
E|---------------------------------------------------------------------|
B|---------------------------------------------------------------------|
G|-3-3--3--------------------------------------------------------------|
D|-3-3--3--------0-----3--3--3--3--------------------------------------|
A|-1-1--1--001133-1----3--3--3--3--------------------------------------|
E|---------------------1--1--1--1--------------------------------------|
Palm mute  ^----^

(0:03)
E|---------------------------------------------------------------------|
B|---------------------------------------------------------------------|
G|------------------7\8--8----7\8--8-----------------------------------|
D|-4\5-4\5-4\5-4/3--7\8--8----7\8--8-----------------------------------|
A|-4\5-4\5-4\5-4/3--5\6--6----5\6--6-----------------------------------|
E|-2\3-2\3-2\3-2/1-----------------------------------------------------|

(0:06)
E|---------------------------------------------------------------------|
B|---------------------------------------------------------------------|
G|-3--------------------------------------------7\8--8-8--7--5---------|
D|-3-333333------0---3--3-x--4--4-x-5--5--4--3--7\8--8-8--7--5---------|
A|-1-111111-0h1h3-1--3--3-x--4--4-x-5--5--4--3--5\6--6-6--5--3---------|
E|-------------------1--1-x--2--2-x-3--3--2--1-------------------------|
Palm mute the power chords without high octave notes here.

(0:11)
E|---------------------------------------------------------------------|
B|---------------------------------------------------------------------|
G|-3---------------3-------------------7\8--8--7\8--8------------------|
D|-3------0---3--3-3--4\5-4\5-4\5-4/3--7\8--8--7\8--8------------------|
A|-1-0h1h3-1--3--3-1--4\5-4\5-4\5-4/3--5\6--6--5\6--6------------------|
E|------------1--1----2\3-2\3-2\3-2/1----------------------------------|

(0:15)
E|---------------------------------------------------------------------|
B|---------------------------------------------------------------------|
G|-3--------------------------------------------7\8--8-8--7--5---------|
D|-3-333333------0---3--3-x--4--4-x-5--5--4--3--7\8--8-8--7--5---------|
A|-1-111111-0h1h3-1--3--3-x--4--4-x-5--5--4--3--5\6--6-6--5--3---------|
E|-------------------1--1-x--2--2-x-3--3--2--1-------------------------|
Palm mute the power chords without high octave notes here.

(0:21)
E|---------------------------------------------------------------------|
B|---------------------------------------------------------------------|
G|-3---------------------------3---------------------------------------|
D|-3-3-3-3-3-3-3-3-3-3-3-3-3-3-3--3-3-3-3-3-3-3-3-3-3-3-3-3------------|
A|-1-1-1-1-1-1-1-1-1-1-1-1-1-1-1--1-1-1-1-1-1-1-1-1-1-1-1-1------------|
E|---------------------------------------------------------------------|
Palm mute the power chords without high octave notes here.

Verse:
(0:26)
E|---------------------------------------------------------------------|
B|---------------------------------------------------------------------|
G|-3-------------------------------------------------------------------|
D|-3--3-3-3-3-3-3-3-3-3-3-3-3-3-3--------------------------------------|
A|-1--1-1-1-1-1-1-1-1-1-1-1-1-1-3--3-3-3-3-3-3-3-3-3-3-3-3-3-3---------|
E|------------------------------1--1-1-1-1-1-1-1-1-1-1-1-1-1-1---------|
Palm mute the power chords without high octave notes here.

(0:28)
E|---------------------------------------------------------------------|
B|-------------------------------3--------------3----------------------|
G|-------------------------------3--------------3----------------------|
D|-5--------------5--------------5--5-5-5-5-5-5-5--5-5-5-5-5-5---------|
A|-5--5-5-5-5-5-5-5--5-5-5-5-5-5-3--3-3-3-3-3-3-3--3-3-3-3-3-3---------|
E|-3--3-3-3-3-3-3-3--3-3-3-3-3-3---------------------------------------|
Palm mute the power chords without high octave notes here.

(0:36)
E|---------------------------------------------------------------------|
B|---------------------------------------------------------------------|
G|-3------------------------------3------------------------------------|
D|-3--3-3-3-3-3-3-3-3-3-3-3-3-3-3-3--3-3-3-3-3-3-3-3-3-3-3-3-3-3-------|
A|-1--1-1-1-1-1-1-1-1-1-1-1-1-1-1-1--1-1-1-1-1-1-1-1-1-1-1-1-1-1-------|
E|---------------------------------------------------------------------|
Palm mute the power chords without high octave notes here.

(0:41)
E|---------------------------------------------------------------------|
B|-------------------3-------------------------------------------------|
G|-3-----------------0--------5----------------------------------------|
D|-3--------3--------0--------5----------------------------------------|
A|-1--------3--------x--------3----------------------------------------|
E|----------1--------3-------------------------------------------------|

(0:51)
E|---------------------------------------------------------------------|
B|---------------------------------------------------------------------|
G|-3---------------------------3------------------------------3--------|
D|-3-3-3-3-3-3-3-3-3-3-3-3-3-3-3--3-3-3-3-3-3-33333333333333333--------|
A|-1-1-1-1-1-1-1-1-1-1-1-1-1-1-1--1-1-1-1-1-1-11111111111111111--------|
E|---------------------------------------------------------------------|
Palm mute the power chords without high octave notes here.

Chorus:
(0:57)
E|---------------------------------------------------------------------|
B|----------4--4--4--4--4----------------------------------------------|
G|----------3--3--3--3--3---------0------------------------------------|
D|------0---1--1--1--1--1--5-5--5---0-3-3--3---------------------------|
A|-0h1h3-1-----------------5-5--5-----3-3--3-33333333------------------|
E|-------------------------3-3--3-----1-1--1-11111111------------------|
Palm mute the power chords without high octave notes here.

(1:02)
E|---------------------------------------------------------------------|
B|------x----------4--4--4--x------------x-----------------------------|
G|-3-3--x----------3--3--3--x-3-3--3--3--x-5-5--5-8-8--8---------------|
D|-3-3--x------0---1--1--1--x-3-3--3--3--x-5-5--5-8-8--8---------------|
A|-1-1--x-0h1h3-1-----------x-1-1--1--1--x-3-3--3-6-6--6---------------|
E|------x-------------------x------------x-----------------------------|

(1:07)
E|---------------------------------------------------------------------|
B|-x---------------4--4--4--x------------------------------------------|
G|-x-3-3-----------3--3--3--x-------0----------------------------------|
D|-x-3-3-------0---1--1--1--x-----0----------3-------------------------|
A|-x-1-1--0h1h3-1-----------x---1------3--3--3-------------------------|
E|-x------------------------x-3--------1--1--1-------------------------|

(1:12)
E|---------------------------------------------------------------------|
B|------x----------4--4--4--x------------x-----------------------------|
G|-3-3--x----------3--3--3--x-3-3--3--3--x-5-5--5-8-8--8-10------------|
D|-3-3--x------0---1--1--1--x-3-3--3--3--x-5-5--5-8-8--8-10------------|
A|-1-1--x-0h1h3-1-----------x-1-1--1--1--x-3-3--3-6-6--6-8-------------|
E|------x-------------------x------------x-----------------------------|

Verse 2:
(1:18)
E|---------------------------------------------------------------------|
B|---------------------------------------------------------------------|
G|-3--3--3-3-3-3--3-3--3-3-3--5--5--5-5-5-5--5-5--5-5-5----------------|
D|-3--3--3-3-3-3--3-3--3-3-3--5--5--5-5-5-5--5-5--5-5-5----------------|
A|-1--1--1-1-1-1--1-1--1-1-1--3--3--3-3-3-3--3-3--3-3-3----------------|
E|---------------------------------------------------------------------|

(1:23)
E|---------------------------------------------------------------------|
B|---------------------------------------------------------------------|
G|-8--8--8-8-8-8--8-8--8-8-8--------x-x-x-x-------x-x-x-x--------------|
D|-8--8--8-8-8-8--8-8--8-8-8--3--3--x-x-x-x-4--4--x-x-x-x--------------|
A|-6--6--6-6-6-6--6-6--6-6-6--3--3--x-x-x-x-4--4--x-x-x-x--------------|
E|----------------------------1--1--x-x-x-x-2--2--x-x-x-x--------------|

(1:28)
E|---------------------------------------------------------------------|
B|---------------------------------------------------------------------|
G|-3--3--3-3-3-3--3-3--3-3-3--5--5--5-5-5-5--5-5--5-5-5----------------|
D|-3--3--3-3-3-3--3-3--3-3-3--5--5--5-5-5-5--5-5--5-5-5----------------|
A|-1--1--1-1-1-1--1-1--1-1-1--3--3--3-3-3-3--3-3--3-3-3----------------|
E|---------------------------------------------------------------------|

(1:33)
E|---------------------------------------------------------------------|
B|---------------------------------------------------------------------|
G|-8--8--8-8-8-8--8-8--8-8-8--------x-x-x-x-------x-x-x-x--------------|
D|-8--8--8-8-8-8--8-8--8-8-8--3--3--x-x-x-x-4--4--x-x-x-x--------------|
A|-6--6--6-6-6-6--6-6--6-6-6--3--3--x-x-x-x-4--4--x-x-x-x--------------|
E|----------------------------1--1--x-x-x-x-2--2--x-x-x-x--------------|

Bridge:
(1:37)
E|---------------------------------------------------------------------|
B|---------------------------------------------------------------------|
G|-3--3--3-3-3-3-3--3--3-3-3-3-5--5--5-5-5-5-5--5--5-5-5-5-------------|
D|-3--3--3-3-3-3-3--3--3-3-3-3-5--5--5-5-5-5-5--5--5-5-5-5-------------|
A|-1--1--1-1-1-1-1--1--1-1-1-1-3--3--3-3-3-3-3--3--3-3-3-3-------------|
E|---------------------------------------------------------------------|

(1:42)
E|---------------------------------------------------------------------|
B|---------------------------------------------------------------------|
G|-8--8--8-8-8-8-8--8--8-8-8-8-------x-x-x-x-------x-x-x-x-------------|
D|-8--8--8-8-8-8-8--8--8-8-8-8-3--3--x-x-x-x-4--4--x-x-x-x-------------|
A|-6--6--6-6-6-6-6--6--6-6-6-6-3--3--x-x-x-x-4--4--x-x-x-x-------------|
E|-----------------------------1--1--x-x-x-x-2--2--x-x-x-x-------------|

(1:47)
E|---------------------------------------------------------------------|
B|---------------------------------------------------------------------|
G|-3--3--3-3-3-3-3--3--3-3-3-3-5--5--5-5-5-5-5--5--5-5-5-5-------------|
D|-3--3--3-3-3-3-3--3--3-3-3-3-5--5--5-5-5-5-5--5--5-5-5-5-------------|
A|-1--1--1-1-1-1-1--1--1-1-1-1-3--3--3-3-3-3-3--3--3-3-3-3-------------|
E|---------------------------------------------------------------------|

(1:52)
E|---------------------------------------------------------------------|
B|---------------------------------------------------------------------|
G|-8--8--8-8-8-8-8--8--8-8-8-8-----------------------------------------|
D|-8--8--8-8-8-8-8--8--8-8-8-8-3--3--3-3-3-3-4--4--4-4-4-4-------------|
A|-6--6--6-6-6-6-6--6--6-6-6-6-3--3--3-3-3-3-4--4--4-4-4-4-------------|
E|-----------------------------1--1--1-1-1-1-2--2--2-2-2-2-------------|

Chorus 2:
(1:57)
E|---------------------------------------------------------------------|
B|------------------4--4--4--4--4--------------------------------------|
G|-3--3-------------3--3--3--3--3---------0----------------------------|
D|-3--3--------0----1--1--1--1--1--5-5--5---0---3--3-------------------|
A|-1--1--001133-1------------------5-5--5-----3-3--3-------------------|
E|---------------------------------3-3--3-----1-1--1-------------------|
Palm mute  ^----^

(2:02)
E|---------------------------------------------------------------------|
B|------x----------4--4--4--x------------x-----------------------------|
G|-3-3--x----------3--3--3--x-3-3--3--3--x-5-5--5-8-8--8---------------|
D|-3-3--x------0---1--1--1--x-3-3--3--3--x-5-5--5-8-8--8---------------|
A|-1-1--x-0h1h3-1-----------x-1-1--1--1--x-3-3--3-6-6--6---------------|
E|------x-------------------x------------x-----------------------------|

(2:07)
E|---------------------------------------------------------------------|
B|--------------------x-6--6-x-----------------------------------------|
G|-3--3---------------x-5--5-x-----------------7\8--8--7\8--8----------|
D|-3--3------0---3--3-x-3--3-x-4\5-4\5-4\5-4/3-7\8--8--7\8--8----------|
A|-1--1-0h1h3-1--3--3-x------x-4\5-4\5-4\5-4/3-5\6--6--5\6--6----------|
E|---------------1--1-x------x-2\3-2\3-2\3-2/1-------------------------|

(2:12)
E|---------------------------------------------------------------------|
B|---------------------------------------------------------------------|
G|-3--------------------------------------------7\8--8-8--7--5--3------|
D|-3-333333------0---3--3-x--4--4-x-5--5--4--3--7\8--8-8--7--5--3------|
A|-1-111111-0h1h3-1--3--3-x--4--4-x-5--5--4--3--5\6--6-6--5--3--1------|
E|-------------------1--1-x--2--2-x-3--3--2--1-------------------------|
Palm mute the power chords without high octave notes here.

(2:17)
E|---------------------------------------------------------------------|
B|---------------------------------------------------------------------|
G|--------------7\8--8-8--7--5---------------7\8--8-8--7--5--3---------|
D|-5--5-5-4--3--7\8--8-8--7--5--5--5-5-4--3--7\8--8-8--7--5--3---------|
A|-5--5-5-4--3--5\6--6-6--5--3--5--5-5-4--3--5\6--6-6--5--3--1---------|
E|-3--3-3-2--1------------------3--3-3-2--1----------------------------|

(2:25). End.

Track 8: I Was a Pre-Teen McCarthyist

Intro:
E|---------------------------------------------------------------------|
B|---------------------------------------------------------------------|
G|-9--9----------------------------------------------------------------|
D|-9--9----7--7--7-7-7-7--7-7-7--7-7-9--9------------------------------|
A|-7--7----7--7--7-7-7-7--7-7-7--7-7-9--9------------------------------|
E|---------5--5--5-5-5-5--5-5-5--5-5-7--7------------------------------|

(0:06)
E|---------------------------------------------------------------------|
B|---------------------------------------------------------------------|
G|-9--9-9-9-9-9-9-9-9-9-9-9-9-9----------------------------------------|
D|-9--9-9-9-9-9-9-9-9-9-9-9-9-9----------------------------------------|
A|-7--7-7-7-7-7-7-7-7-7-7-7-7-7----------------------------------------|
E|---------------------------------------------------------------------|

(0:09)
E|---------------------------------------------------------------------|
B|---------------------------------------------------------------------|
G|-9--9--------------------------------------9-------------------------|
D|-9--9----7--7--7-7-7-7--7-7-7--7-7-9--9----9--2----------------------|
A|-7--7----7--7--7-7-7-7--7-7-7--7-7-9--9----7--2----------------------|
E|---------5--5--5-5-5-5--5-5-5--5-5-7--7-------0----------------------|

Verse:
(0:18)
E|---------------------------------------------------------------------|
B|-------------------------------5-5--5-5-5-5--5-5-5--5-5-5-5----------|
G|-9-9--9-9-9-9--9-9-9--9-9-9-9--6-6--6-6-6-6--6-6-6--6-6-6-6----------|
D|-9-9--9-9-9-9--9-9-9--9-9-9-9--6-6--6-6-6-6--6-6-6--6-6-6-6----------|
A|-7-7--7-7-7-7--7-7-7--7-7-7-7--4-4--4-4-4-4--4-4-4--4-4-4-4----------|
E|---------------------------------------------------------------------|

(0:23)
E|---------------------------------------------------------------------|
B|---------------------------------------------------------------------|
G|---------------------------------------------------------------------|
D|-7-7-x--7-x-7-x-9--9-9-9-9-9-9-9-7-7-x--7-x-7-x-9--9-9-9-9-9-9-9-----|
A|-7-7-x--7-x-7-x-9--9-9-9-9-9-9-9-7-7-x--7-x-7-x-9--9-9-9-9-9-9-9-----|
E|-5-5-x--5-x-5-x-7--7-7-7-7-7-7-7-5-5-x--5-x-5-x-7--7-7-7-7-7-7-7-----|

(0:28)
E|---------------------------------------------------------------------|
B|-------------------------------5-5--5-5-5-5--5-5-5--5-5-5-5----------|
G|-9-9--9-9-9-9--9-9-9--9-9-9-9--6-6--6-6-6-6--6-6-6--6-6-6-6----------|
D|-9-9--9-9-9-9--9-9-9--9-9-9-9--6-6--6-6-6-6--6-6-6--6-6-6-6----------|
A|-7-7--7-7-7-7--7-7-7--7-7-7-7--4-4--4-4-4-4--4-4-4--4-4-4-4----------|
E|---------------------------------------------------------------------|

(0:33)
E|---------------------------------------------------------------------|
B|---------------------------------------------------------------------|
G|---------------------------------------------------------------------|
D|-7-7-x--7-x-7-x-9--9-9-9-9-9-9-9-7-7-x--7-x-7-x-9--9-9-9-9-9-9-9-----|
A|-7-7-x--7-x-7-x-9--9-9-9-9-9-9-9-7-7-x--7-x-7-x-9--9-9-9-9-9-9-9-----|
E|-5-5-x--5-x-5-x-7--7-7-7-7-7-7-7-5-5-x--5-x-5-x-7--7-7-7-7-7-7-7-----|

Verse 2:
(0:37)
E|---------------------------------------------------------------------|
B|---------------5--5--5-----------------------------------------------|
G|-9--6-------9--6--6--6-----------------------------------------------|
D|-x--x----7--9--6--6--6--9--9--7----7---------------------------------|
A|-7--4----x--7--4--4--4--9--9--7----7---------------------------------|
E|---------5--------------7--7--5----5---------------------------------|

(0:56):
E|---------------------------------------------------------------------|
B|-------------------------------5-5--5-5-5-5--5-5-5--5-5-5-5----------|
G|-9-9--9-9-9-9--9-9-9--9-9-9-9--6-6--6-6-6-6--6-6-6--6-6-6-6----------|
D|-9-9--9-9-9-9--9-9-9--9-9-9-9--6-6--6-6-6-6--6-6-6--6-6-6-6----------|
A|-7-7--7-7-7-7--7-7-7--7-7-7-7--4-4--4-4-4-4--4-4-4--4-4-4-4----------|
E|---------------------------------------------------------------------|

(1:00)
E|---------------------------------------------------------------------|
B|---------------------------------------------------------------------|
G|-8-8--8-8-8-8--8-8-8--8-8-8-8--6-6--6-6-6-6--6-6-6--6-6-6-6----------|
D|-9-9--9-9-9-9--9-9-9--9-9-9-9--7-7--7-7-7-7--7-7-7--7-7-7-7----------|
A|-9-9--9-9-9-9--9-9-9--9-9-9-9--7-7--7-7-7-7--7-7-7--7-7-7-7----------|
E|-7-7--7-7-7-7--7-7-7--7-7-7-7--5-5--5-5-5-5--5-5-5--5-5-5-5----------|

(1:05)
E|---------------------------------------------------------------------|
B|-------------------------------5-5--5-5-5-5--5-5-5--5-5-5-5----------|
G|-9-9--9-9-9-9--9-9-9--9-9-9-9--6-6--6-6-6-6--6-6-6--6-6-6-6----------|
D|-9-9--9-9-9-9--9-9-9--9-9-9-9--6-6--6-6-6-6--6-6-6--6-6-6-6----------|
A|-7-7--7-7-7-7--7-7-7--7-7-7-7--4-4--4-4-4-4--4-4-4--4-4-4-4----------|
E|---------------------------------------------------------------------|

(1:09)
E|---------------------------------------------------------------------|
B|---------------------------------------------------------------------|
G|-8-8--8-8-8-8--8-8-8--8-8-8-8----------------------------------------|
D|-9-9--9-9-9-9--9-9-9--9-9-9-9----------------------------------------|
A|-9-9--9-9-9-9--9-9-9--9-9-9-9----------------------------------------|
E|-7-7--7-7-7-7--7-7-7--7-7-7-7----------------------------------------|

(1:11)
E|---------------------------------------------------------------------|
B|---------------------------------------------------------------------|
G|-6--6-6--6-6--6-6--6-6-6---------------------------------------------|
D|-7--7-7--7-7--7-7--7-7-7---------------------------------------------|
A|-7--7-7--7-7--7-7--7-7-7---------------------------------------------|
E|-5--5-5--5-5--5-5--5-5-5---------------------------------------------| x6

Bridge:
(1:25)
E|---------------------------------------------------------------------|
B|-9-9--9-9-9--10-10-9-10----------------------------------------------|
G|-9-9--9-9-9--9--9--9-9-----------------------------------------------|
D|-9-9--9-9-9--9--9--9-9---7-7--7-7-7-7--7-7-7--7-7-7------------------|
A|-7-7--7-7-7--7--7--7-7---7-7--7-7-7-7--7-7-7--7-7-7------------------|
E|-------------------------5-5--5-5-5-5--5-5-5--5-5-5------------------|

(1:29)
E|---------------------------------------------------------------------|
B|---------------------------------------------------------------------|
G|-----------------------------9--9-9-9-9-9-9-9-9-9-9-9-9-9-9-9--------|
D|-9-9--9-9-9-9--9-9-9--9-9-9--9--9-9-9-9-9-9-9-9-9-9-9-9-9-9-9--------|
A|-9-9--9-9-9-9--9-9-9--9-9-9--7--7-7-7-7-7-7-7-7-7-7-7-7-7-7-7--------|
E|-7-7--7-7-7-7--7-7-7--7-7-7------------------------------------------|

(1:34)
E|---------------------------------------------------------------------|
B|-9--9--9-9-9--10-10-10-9--10--9--9-9-9-9-9-9--10--10-10-10--10-10----|
G|-9--9--9-9-9--9--9--9--9--9---9--9-9-9-9-9-9--9---9--9--9---9--9-----|
D|-9--9--9-9-9--9--9--9--9--9---9--9-9-9-9-9-9--9---9--9--9---9--9-----|
A|-7--7--7-7-7--7--7--7--7--7---7--7-7-7-7-7-7--7---7--7--7---7--7-----|
E|---------------------------------------------------------------------|

(1:38)
E|---------------------------------------------------------------------|
B|-9--9-9-9-9-9-9--10--10-10-10--10-10---------------------------------|
G|-9--9-9-9-9-9-9--9---9--9--9---9--9----------------------------------|
D|-9--9-9-9-9-9-9--9---9--9--9---9--9----------------------------------|
A|-7--7-7-7-7-7-7--7---7--7--7---7--7----------------------------------|
E|---------------------------------------------------------------------|

(1:41)
E|---------------------------------------------------------------------|
B|---------------------------------------------------------------------|
G|-9--8----------------------------------------------------------------|
D|-x--x----7-7-7-7--7--9-----------------------------------------------|
A|-7--6----7-7-7-7--7--9--9-9-9-9-9-9-9--------------------------------|
E|---------5-5-5-5--5--7--7-7-7-7-7-7-7--------------------------------|
Palm mute the power chords without high octave notes here.

(1:45)
E|------------5----7---------------------------------------------------|
B|------------5----7---------------------------------------------------|
G|-9----8-----6----8---------------------------------------------------|
D|-9----9--9--7----9---------------------------------------------------|
A|-7----6--9--7----9---------------------------------------------------|
E|-0-------7--5----7---------------------------------------------------| X2

(1:55)
E|-4------4-----------------5------------------------------------------|
B|---4------4-----4-5--5----5----10--9---------------------------------|
G|------5------5------6--4--6----9---9---------------------------------|
D|-------------------------------9---9---------------------------------|
A|-------------------------------7---7---------------------------------|
E|---------------------------------------------------------------------|

(2:00)
E|---------------------------------------------------------------------|
B|-9-9-9-10--9---------------------------------------------------------|
G|-9-9-9-9---9--8-8-8-9--8---------------------------------------------|
D|-9-9-9-9---9--9-9-9-9--9--7--7-7-7-7-7-7-7-7-7-7-7-7-7-7-------------|
A|-7-7-7-7---7--9-9-9-9--9--7--7-7-7-7-7-7-7-7-7-7-7-7-7-7-------------|
E|--------------7-7-7-7--7--5--5-5-5-5-5-5-5-5-5-5-5-5-5-5-------------|

Outro:
(2:05)
E|---------------------------------------------------------------------|
B|---------------------------------------------------------------------|
G|-------8-------------------------------------------------------------|
D|-11----9----7--------------------------------------------------------|
A|-11----9----7--------------------------------------------------------|
E|-9-----7----5--------------------------------------------------------| x3

(2:19)
E|---------------------------------------------------------------------|
B|-9-9-9-10--9---------------------------------------------------------|
G|-9-9-9-9---9--8-8-8-9--8--9------------------------------------------|
D|-9-9-9-9---9--9-9-9-9--9--9------------------------------------------|
A|-7-7-7-7---7--9-9-9-9--9--7------------------------------------------|
E|--------------7-7-7-7--7--0------------------------------------------|

(2:33). End.

Track 9: Resisting Tyrannical Government

Verse:
E|-12-12--12-12-12--12-12-12--12-12-12--10-10-10--10-10-10-------------|
B|-14-14--14-14-14--14-14-14--14-14-14--12-12-12--12-12-12-------------|
G|-14-14--14-14-14--14-14-14--14-14-14--12-12-12--12-12-12-------------|
D|---------------------------------------------------------------------|
A|---------------------------------------------------------------------|
E|---------------------------------------------------------------------|

(0:04)
E|-10-10-10--10-10-10--------------------------------------------------|
B|-12-12-12--12-12-12--------------------------------------------------|
G|-11-11-11--11-11-11--------------------------------------------------|
D|---------------------------------------------------------------------|
A|---------------------------------------------------------------------|
E|---------------------------------------------------------------------|

(0:06)
E|-14-12-12--12-12-12--12-12-12--12-12-12--10-10-10--10-10-10----------|
B|-14-14-14--14-14-14--14-14-14--14-14-14--12-12-12--12-12-12----------|
G|-14-14-14--14-14-14--14-14-14--14-14-14--11-11-11--11-11-11----------|
D|---------------------------------------------------------------------|
A|---------------------------------------------------------------------|
E|---------------------------------------------------------------------|

(0:10)
E|-10-10-10--10-10-10--------------------------------------------------|
B|-10-10-10--10-10-10--------------------------------------------------|
G|-10-10-10--10-10-10--------------------------------------------------|
D|-12-12-12--12-12-12--------------------------------------------------|
A|---------------------------------------------------------------------|
E|---------------------------------------------------------------------|

(0:11)
E|-14-12-12--12-12-12--12-12-12--12-12-12--10-10-10--10-10-10----------|
B|-14-14-14--14-14-14--14-14-14--14-14-14--12-12-12--12-12-12----------|
G|-14-14-14--14-14-14--14-14-14--14-14-14--12-12-12--12-12-12----------|
D|---------------------------------------------------------------------|
A|---------------------------------------------------------------------|
E|---------------------------------------------------------------------|

(0:16)
E|-10-10-10--10-10-10--------------------------------------------------|
B|-12-12-12--12-12-12--------------------------------------------------|
G|-11-11-11--11-11-11--------------------------------------------------|
D|---------------------------------------------------------------------|
A|---------------------------------------------------------------------|
E|---------------------------------------------------------------------|

(0:17)
E|-14-12-12--12-12-12--12-12-12--12-12-12--10-10-10--10-10-10----------|
B|-14-14-14--14-14-14--14-14-14--14-14-14--12-12-12--12-12-12----------|
G|-14-14-14--14-14-14--14-14-14--14-14-14--11-11-11--11-11-11----------|
D|---------------------------------------------------------------------|
A|---------------------------------------------------------------------|
E|---------------------------------------------------------------------|

(0:22)
E|---------------------------------------------------------------------|
B|---------------------------------------------------------------------|
G|---------------------------------------------------------------------|
D|-------2-------------------------------------------------------------|
A|-5-----2-------------------------------------------------------------|
E|---4-5-0-------------------------------------------------------------|

(0:23)
E|-12-12--12-12-12--12-12-12--12-12-12--10-10-10--10-10-10-------------|
B|-14-14--14-14-14--14-14-14--14-14-14--12-12-12--12-12-12-------------|
G|-14-14--14-14-14--14-14-14--14-14-14--12-12-12--12-12-12-------------|
D|---------------------------------------------------------------------|
A|---------------------------------------------------------------------|
E|---------------------------------------------------------------------|

(0:28)
E|-10-10-10--10-10-10--------------------------------------------------|
B|-12-12-12--12-12-12--------------------------------------------------|
G|-11-11-11--11-11-11--------------------------------------------------|
D|---------------------------------------------------------------------|
A|---------------------------------------------------------------------|
E|---------------------------------------------------------------------|

(0:29)
E|-14-12-12--12-12-12--12-12-12--12-12-12--10-10-10--10-10-10----------|
B|-14-14-14--14-14-14--14-14-14--14-14-14--12-12-12--12-12-12----------|
G|-14-14-14--14-14-14--14-14-14--14-14-14--11-11-11--11-11-11----------|
D|---------------------------------------------------------------------|
A|---------------------------------------------------------------------|
E|---------------------------------------------------------------------|

(0:34)
E|-10-10-10--10-10-10--------------------------------------------------|
B|-10-10-10--10-10-10--------------------------------------------------|
G|-10-10-10--10-10-10--------------------------------------------------|
D|-12-12-12--12-12-12--------------------------------------------------|
A|---------------------------------------------------------------------|
E|---------------------------------------------------------------------|

(0:35)
E|-14-12-12--12-12-12--12-12-12--12-12-12--10-10-10--10-10-10----------|
B|-14-14-14--14-14-14--14-14-14--14-14-14--12-12-12--12-12-12----------|
G|-14-14-14--14-14-14--14-14-14--14-14-14--12-12-12--12-12-12----------|
D|---------------------------------------------------------------------|
A|---------------------------------------------------------------------|
E|---------------------------------------------------------------------|

(0:40)
E|-10-10-10--10-10-10--------------------------------------------------|
B|-12-12-12--12-12-12--------------------------------------------------|
G|-11-11-11--11-11-11--------------------------------------------------|
D|---------------------------------------------------------------------|
A|---------------------------------------------------------------------|
E|---------------------------------------------------------------------|

(0:41)
E|-14-12-12--12-12-12--12-12-12--12-12-12--10-10-10--10-10-10----------|
B|-14-14-14--14-14-14--14-14-14--14-14-14--12-12-12--12-12-12----------|
G|-14-14-14--14-14-14--14-14-14--14-14-14--11-11-11--11-11-11----------|
D|---------------------------------------------------------------------|
A|---------------------------------------------------------------------|
E|---------------------------------------------------------------------|

(0:45)
E|-10-10-10--10-10-10--------------------------------------------------|
B|-10-10-10--10-10-10--------------------------------------------------|
G|-10-10-10--10-10-10--------------------------------------------------|
D|-12-12-12--12-12-12--------------------------------------------------|
A|---------------------------------------------------------------------|
E|---------------------------------------------------------------------|

Chorus:
(0:47)
E|---------------------------------------------------------------------|
B|---------------------------------------------------------------------|
G|----------4-4-4--4-4-4--9-9-9--9-9-9--7-7-7--7-7-7-------------------|
D|-7--7--7--6-6-6--6-6-6--7-7-7--7-7-7--7-7-7--7-7-7-------------------|
A|-7--7--7--7-7-7--7-7-7--5-5-5--5-5-5--5-5-5--5-5-5-------------------|
E|-5--5--5-------------------------------------------------------------| x3

(1:05)
E|---------------------------------------------------------------------|
B|---------------------------------------------------------------------|
G|----------4-4-4--4-4-4--7-7--7-9-9--9-11-11--11-9-9------------------|
D|-7--7--7--6-6-6--6-6-6--x-x--x-x-x--x-x--x---x--x-x------------------|
A|-7--7--7--7-7-7--7-7-7--5-5--5-7-7--7-9--9---9--7-7------------------|
E|-5--5--5-------------------------------------------------------------|

Bridge:
(1:10)
E|---------------------------------------------------------------------|
B|-------10---------7---------5----------------------------------------|
G|----------9---------9---------7--------------------------------------|
D|-7\11--------6\9-------4\7-------------------------------------------|
A|---------------------------------------------------------------------|
E|---------------------------------------------------------------------|

(1:16)
E|---------------------------------------------------------------------|
B|-------10---------7---------------5----------------------------------|
G|----------9---------9------------------------------------------------|
D|-7\11--------6\9-------4\7-------------------------------------------|
A|---------------------------------------7-----------------------------|
E|---------------------------------------------------------------------|

(1:22)
E|---------------------------------------------------------------------|
B|-------10---------7---------5---7-5----------------------------------|
G|----------9---------9---------7-----7-6------------------------------|
D|-7\11--------6\9-------4\7-------------------------------------------|
A|---------------------------------------------------------------------|
E|---------------------------------------------------------------------|

(1:27)
E|---------------------------------------------------------------------|
B|-------10------------------------------------------------------------|
G|------------------7--------------------------------------------------|
D|-7\11------6\9----7--------------------------------------------------|
A|------------------5--------------------------------------------------|
E|---------------------------------------------------------------------|

Outro:
(1:33)
E|----------2----------------------------------------------------------|
B|----------3----------------------------------------------------------|
G|----------4----------------------------------------------------------|
D|-7--------4----------------------------------------------------------|
A|-7--------2----------------------------------------------------------|
E|-5-------------------------------------------------------------------|

(1:38)
E|-4-4--4-4-4--4-4-4--4-4-4--2-2-2--2-2-2--2-2-2--2-2-2--2-------------|
B|-5-5--5-5-5--5-5-5--5-5-5--3-3-3--3-3-3--3-3-3--3-3-3--3-------------|
G|-6-6--6-6-6--6-6-6--6-6-6--4-4-4--4-4-4--4-4-4--4-4-4--4-------------|
D|-6-6--6-6-6--6-6-6--6-6-6--4-4-4--4-4-4--4-4-4--4-4-4--4-------------|
A|-4-4--4-4-4--4-4-4--4-4-4--2-2-2--2-2-2--2-2-2--2-2-2--2-------------|
E|---------------------------------------------------------------------|

(1:44)
E|----------------------2-2-2--2-2-2--2-2-2--2-2-2---------------------|
B|----------------------3-3-3--3-3-3--3-3-3--3-3-3---------------------|
G|-2--2--2--x--2--2--2--4-4-4--4-4-4--4-4-4--4-4-4---------------------|
D|-2--2--2--x--2--2--2--4-4-4--4-4-4--4-4-4--4-4-4---------------------|
A|-0--0--0--x--0--0--0--2-2-2--2-2-2--2-2-2--2-2-2---------------------|
E|----------x----------------------------------------------------------|

(1:49)
E|-4-4-4--4-4-4--4-4-4--4-4-4------------------------------------------|
B|-5-5-5--5-5-5--5-5-5--5-5-5------------------------------------------|
G|-6-6-6--6-6-6--6-6-6--6-6-6------------------------------------------|
D|-6-6-6--6-6-6--6-6-6--6-6-6------------------------------------------|
A|-4-4-4--4-4-4--4-4-4--4-4-4------------------------------------------|
E|---------------------------------------------------------------------|

(1:52)
E|-2--------4----------------------------------------------------------|
B|-3--------5----------------------------------------------------------|
G|-4--------6--------7-------------------------------------------------|
D|-4--------6--------7-------------------------------------------------|
A|-2--------4--------5-------------------------------------------------|
E|---------------------------------------------------------------------| x2

(2:04)
E|---------------------------------------------------------------------|
B|---------------------------------------------------------------------|
G|----------7--------------------------7-------------------------------|
D|-5--------7--------7--------5--------7--------5-5--------------------|
A|-5--------5--------7--------5--------5--------5-5--------------------|
E|-3-----------------5--------3-----------------3-3--------------------|

(2:16). End.

Track 10: Gifts

Verse:
E|---------------------------------------------------------------------|
B|---------------------------------------------------------------------|
G|-7-------------------------------------------------------------------|
D|-7-7-7-7-7-7-7-7-5----9--9----------7--------------5-----------------|
A|-5-5-5-5-5-5-5-5-5----9--9--9-9-9-9-7--7-7-7-7-7-7-5--5-5-5-5-5-5----|
E|-----------------3----7--7--7-7-7-7-5--5-5-5-5-5-5-3--3-3-3-3-3-3----|
Palm mute the power chords without high octave notes here.

(0:06)
E|---------------------------------------------------------------------|
B|---------------------------------------------------------------------|
G|-7-------------------------------------------------------------------|
D|-7--7-7-7-7-7-7-7--7----------7--7-----------------------------------|
A|-5--5-5-5-5-5-5-7--7--7-7-7-7-7--7--7-7-7-7--------------------------|
E|----------------5--5--5-5-5-5-5--5--5-5-5-5--------------------------|
Palm mute the power chords without high octave notes here.

(0:09)
E|---------------------------------------------------------------------|
B|---------------------------------------------------------------------|
G|-7-------------------------------------------------------------------|
D|-7--7-7-7-7-7-7-5--------------9--9----------7-----------------------|
A|-5--5-5-5-5-5-5-5--5-5-5-5-5-5-9--9--9-9-9-9-7--7-7-7-7-7-7----------|
E|----------------3--3-3-3-3-3-3-7--7--7-7-7-7-5--5-5-5-5-5-5----------|
Palm mute the power chords without high octave notes here.

(0:14)
E|---------------------------------------------------------------------|
B|---------------------------------------------------------------------|
G|----------------7----------------------------------------------------|
D|-5--------------7--7-7-7-7-7-7-7--7--------0------0------------------|
A|-5--5-5-5-5-5-5-5--5-5-5-5-5-5-7--7--7-7-7----4------4---------------|
E|-3--3-3-3-3-3-3----------------5--5--5-5-5------5------5-------------|
Palm mute the power chords without high octave notes here.

Pre-chorus:
(0:18)
E|------3----5---------------------------------------------------------|
B|------3----5---------------------------------------------------------|
G|-4----0----6---------------------------------------------------------|
D|-4----0----7---------------------------------------------------------|
A|-2----2----7---------------------------------------------------------|
E|------3----5---------------------------------------------------------| x2

Chorus:
(0:28)
E|----5---------5---------5----------5---------------------------------|
B|------5---------5----------5----------5------------------------------|
G|-7-------7-6-------6-7--------7-6--------6---------------------------|
D|---------------------------------------------------------------------|
A|---------------------------------------------------------------------|
E|---------------------------------------------------------------------|

(0:33)
E|---------------------------------------------------------------------|
B|-8----7------8-------------------------------------------------------|
G|-7--7-7--7-7-7----------0--------------------------------------------|
D|-5--5-5--5-5-5-------4-------7---------------------------------------|
A|------------------5----------7---------------------------------------|
E|-----------------------------5---------------------------------------|
Palm mute the power chords without high octave notes here.

(0:38)
E|----5---------5---------5----------5---------------------------------|
B|------5---------5----------5----------5------------------------------|
G|-7-------7-6-------6-7--------7-6--------6---------------------------|
D|---------------------------------------------------------------------|
A|---------------------------------------------------------------------|
E|---------------------------------------------------------------------|

(0:42)
E|---------------------------------------------------------------------|
B|-8----7------8-------------------------------------------------------|
G|-7--7-7--7-7-7----------0--------------------------------------------|
D|-5--5-5--5-5-5-------4-------7---------------------------------------|
A|------------------5----------7---------------------------------------|
E|-----------------------------5---------------------------------------|
Palm mute the power chords without high octave notes here.

Verse 2:
(0:47)
E|---------------------------------------------------------------------|
B|---------------------------------------------------------------------|
G|-7--7--7-------------------------------------------------------------|
D|-7--7--7----5----9--9----------7-------------------------------------|
A|-5--5--5----5----9--9--9-9-9-9-7--7-7-7-7-7-7------------------------|
E|------------3----7--7--7-7-7-7-5--5-5-5-5-5-5------------------------|
Palm mute the power chords without high octave notes here.

(0:51)
E|---------------------------------------------------------------------|
B|---------------------------------------------------------------------|
G|----------------7----------------------------------------------------|
D|-5--------------7--7-7-7-7-7-7-7--7----------7--7--------------------|
A|-5--5-5-5-5-5-5-5--5-5-5-5-5-5-7--7--7-7-7-7-7--7--7-7-7-7-----------|
E|-3--3-3-3-3-3-3----------------5--5--5-5-5-5-5--5--5-5-5-5-----------|
Palm mute the power chords without high octave notes here.

(0:56)
E|---------------------------------------------------------------------|
B|---------------------------------------------------------------------|
G|-7-------------------------------------------------------------------|
D|-7--7-7-7-7-7-7-5--------------9--9----------7-----------------------|
A|-5--5-5-5-5-5-5-5--5-5-5-5-5-5-9--9--9-9-9-9-7--7-7-7-7-7-7----------|
E|----------------3--3-3-3-3-3-3-7--7--7-7-7-7-5--5-5-5-5-5-5----------|
Palm mute the power chords without high octave notes here.

(1:01)
E|---------------------------------------------------------------------|
B|---------------------------------------------------------------------|
G|----------------7----------------------------------------------------|
D|-5--------------7--7-7-7-7-7-7-7--7--------0------0------------------|
A|-5--5-5-5-5-5-5-5--5-5-5-5-5-5-7--7--7-7-7----4------4---------------|
E|-3--3-3-3-3-3-3----------------5--5--5-5-5------5------5-------------|
Palm mute the power chords without high octave notes here.

Pre-chorus 2:
(1:05)
E|------3----5---------------------------------------------------------|
B|------3----5---------------------------------------------------------|
G|-4----0----6---------------------------------------------------------|
D|-4----0----7---------------------------------------------------------|
A|-2----2----7---------------------------------------------------------|
E|------3----5---------------------------------------------------------| x2

Chorus 2:
(1:15)
E|----5---------5---------5----------5---------------------------------|
B|------5---------5----------5----------5------------------------------|
G|-7-------7-6-------6-7--------7-6--------6---------------------------|
D|---------------------------------------------------------------------|
A|---------------------------------------------------------------------|
E|---------------------------------------------------------------------|

(1:19)
E|---------------------------------------------------------------------|
B|-8----7------8-------------------------------------------------------|
G|-7--7-7--7-7-7----------0--------------------------------------------|
D|-5--5-5--5-5-5-------4-------7---------------------------------------|
A|------------------5----------7---------------------------------------|
E|-----------------------------5---------------------------------------|
Palm mute the power chords without high octave notes here.

(1:24)
E|----5---------5---------5----------5---------------------------------|
B|------5---------5----------5----------5------------------------------|
G|-7-------7-6-------6-7--------7-6--------6---------------------------|
D|---------------------------------------------------------------------|
A|---------------------------------------------------------------------|
E|---------------------------------------------------------------------|

(1:29)
E|---------------------------------------------------------------------|
B|-8----7----8--------8----7----10-------------------------------------|
G|-7----7----7--------7----7----9-------------7------------------------|
D|-5----5----5--------5----5----7-------------x------------------------|
A|--------------------------------------------5------------------------|
E|----------------------------------------3-3--------------------------|

Bridge:
(1:39)
E|---------------------------------------------------------------------|
B|---------------------------------------------------------------------|
G|-7-7-----------------------------------------------------------------|
D|-7-7-----7-7-----9-9-----4-4-----5-5-----4-4-----5-5-----7-7---------|
A|-5-5-7-7-7-7-9-9-9-9-5-5-5-5-5-5-5-5-5-5-5-5-5-5-5-5-7-7-7-7---------|
E|-----5-5-5-5-7-7-7-7-2-2-2-2-3-3-3-3-2-2-2-2-3-3-3-3-5-5-5-5---------|
Palm mute the chords without high octave notes here.

(1:44)
E|---------------------------------------------------------------------|
B|---------------------------------------------------------------------|
G|-----7-7-------------------------------------------------------------|
D|-7-7-7-7-----7-7-----9-9-----4-4-----5-5-----4-4-----5-5-----7-7-----|
A|-5-5-5-5-7-7-7-7-9-9-9-9-5-5-5-5-5-5-5-5-5-5-5-5-5-5-5-5-7-7-7-7-----|
E|---------5-5-5-5-7-7-7-7-2-2-2-2-3-3-3-3-2-2-2-2-3-3-3-3-5-5-5-5-----|
Palm mute the power chords without high octave notes here.

Outro:
(1:49)
E|-2-2-2-2-0-0-0-0-2-2-2-2-0-0-0-0-0-2-3--0-2-3--3--3-2-0--------------|
B|-3-3-3-3-3-3-3-3-3-3-3-3-3-3-3-3-3-3-3--3-3-3--3--3-3-3--------------|
G|-2-2-2-2-2-2-2-2-2-2-2-2-2-2-2-2-2-2-2--2-2-2--2--2-2-2--------------|
D|-0-0-0-0-0-0-0-0-0-0-0-0-0-0-0-0-0-0-0--0-0-0--0--0-0-0--------------|
A|---------------------------------------------------------------------|
E|---------------------------------------------------------------------|

(1:55)
E|-2-2-2-2-0-0-0-0-2-2-2-2-0-0-0-0-0-2-3--0-2-3--3--3-2-0--------------|
B|-3-3-3-3-3-3-3-3-3-3-3-3-3-3-3-3-3-3-3--3-3-3--3--3-3-3--------------|
G|-2-2-2-2-2-2-2-2-2-2-2-2-2-2-2-2-2-2-2--2-2-2--2--2-2-2--------7-----|
D|-0-0-0-0-0-0-0-0-0-0-0-0-0-0-0-0-0-0-0--0-0-0--0--0-0-0--------7-----|
A|-----------------------------------------------------------7-7-5-----|
E|-----------------------------------------------------------5-5-------|

(2:04). End.

Track 11: The Only Good Fascist is a Very Dead Fascist

Intro:
(0:02)
E|-3-------------------------------------------------------------------|
B|---------------------------------------------------------------------|
G|---------------------------------------------------------------------|
D|---------------------------------------------------------------------|
A|---------------------------------------------------------------------|
E|---------------------------------------------------------------------|

(0:03)
E|---------------------------------------------------------------------|
B|---------------------------------------------------------------------|
G|-4--5--6--7----------------------------------------------------------|
D|-x--x--x--x----------------------------------------------------------|
A|-2--3--4--5----------------------------------------------------------|
E|---------------------------------------------------------------------| x8

Verse:
(0:20)
E|---------------------------------------------------------------------|
B|---------------------------------------------------------------------|
G|-7--7-------6--6-----------------------------------------------------|
D|-7--7--6----6--6--5--------------------------------------------------|
A|-5--5--6----4--4--5--------------------------------------------------|
E|-------4----------3--------------------------------------------------| x5

(0:35)
E|---------------------------------------------------------------------|
B|---------------------------------------------------------------------|
G|-7-----6-------------------------------------------------------------|
D|-7--6--6--5----------------------------------------------------------|
A|-5--6--4--5----------------------------------------------------------|
E|----4-----3----------------------------------------------------------|

Bridge:
(0:37)
E|-------------------------5-6-5-6-------------------------------------|
B|-----------------7-8-7-8---------------------------------------------|
G|-7-8-7-8-7-8-7-8-----------------------------------------------------|
D|---------------------------------------------------------------------|
A|---------------------------------------------------------------------|
E|---------------------------------------------------------------------| x4
Don't play the last three notes the last time.

Verse 2:
(0:53)
E|---------------------------------------------------------------------|
B|---------------------------------------------------------------------|
G|-7--7-------6--6-----------------------------------------------------|
D|-7--7--6----6--6--5--------------------------------------------------|
A|-5--5--6----4--4--5--------------------------------------------------|
E|-------4----------3--------------------------------------------------| x5

(1:08)
E|---------------------------------------------------------------------|
B|---------------------------------------------------------------------|
G|-7-----6-------------------------------------------------------------|
D|-7--6--6--5----------------------------------------------------------|
A|-5--6--4--5----------------------------------------------------------|
E|----4-----3----------------------------------------------------------|

(1:11). End.

Track 12: A People's History of the World

Intro:
E|---------------------------------------------------------------------|
B|---------------------------------------------------------------------|
G|-9--9----9-----------------------------------------------------------|
D|-9--99--99--9--------------------------------------------------------|
A|-7--79--97--9--9999--------------------------------------------------|
E|-----7--7---7--7777--------------------------------------------------| x4
Palm mute the power chords without high octave notes here.

Verse:
(0:05)
E|---------------------------------------------------------------------|
B|---------------------------------------------------------------------|
G|-9--9----9-----------------------------------------------------------|
D|-9--99--99--9--------------------------------------------------------|
A|-7--79--97--9--9999--------------------------------------------------|
E|-----7--7---7--7777--------------------------------------------------| x4
Palm mute the power chords without high octave notes here.

(0:11)
E|---------------------------------------------------------------------|
B|---------------------------------------------------------------------|
G|-2----7--------------------------------------------------------------|
D|-4----7--------------------------------------------------------------|
A|-4----5--------------------------------------------------------------| 
E|-2-------------------------------------------------------------------|

(0:14)
E|---------------------------------------------------------------------|
B|---------------------------------------------------------------------|
G|-9--9----9-----------------------------------------------------------|
D|-9--99--99--9--------------------------------------------------------|
A|-7--79--97--9--9999--------------------------------------------------|
E|-----7--7---7--7777--------------------------------------------------| x2
Palm mute the power chords without high octave notes here.

(0:17)
E|---------------------------------------------------------------------|
B|---------------------------------------------------------------------|
G|-2----7--------------------------------------------------------------|
D|-4----7--------------------------------------------------------------|
A|-4----5--------------------------------------------------------------| 
E|-2-------------------------------------------------------------------|

(0:19)
E|---------------------------------------------------------------------|
B|---------------------------------------------------------------------|
G|-9--9----9-----------------------------------------------------------|
D|-9--99--99--9--------------------------------------------------------|
A|-7--79--97--9--9999--------------------------------------------------|
E|-----7--7---7--7777--------------------------------------------------| x2
Palm mute the power chords without high octave notes here.

(0:22)
E|---------------------------3-3-3--3-3-3------------------------------|
B|-5-5--5-5-5--5-5-5--5-5-5--3-3-3--3-3-3------------------------------|
G|-6-6--6-6-6--6-6-6--6-6-6--0-0-0--0-0-0------------------------------|
D|-6-6--6-6-6--6-6-6--6-6-6--0-0-0--0-0-0--4-4-4--4-4-4----------------|
A|-4-4--4-4-4--4-4-4--4-4-4--2-2-2--2-2-2--5-5-5--5-5-5----------------|
E|---------------------------3-3-3--3-3-3--2-2-2--2-2-2----------------|

(0:28)
E|---------------------------------------------------------------------|
B|---------------------------------------------------------------------|
G|-9-9--9--9--9-9-9--9--9--8-8-8--8--8--8-8-8--8--8--------------------|
D|-9-9--9--9--9-9-9--9--9--9-9-9--9--9--9-9-9--9--9--------------------|
A|-7-7--7--7--7-7-7--7--7--6-6-6--6--6--6-6-6--6--6--------------------|
E|---------------------------------------------------------------------|

(0:34)
E|---------------------------------------------------------------------|
B|---------------------------------------------------------------------|
G|-7-7-7--7--7--7-7-7--7--7--------------------------------------------|
D|-7-7-7--7--7--7-7-7--7--7--7-7-7--7--7--9-9-9--9--9------------------|
A|-5-5-5--5--5--5-5-5--5--5--7-7-7--7--7--9-9-9--9--9------------------|
E|---------------------------5-5-5--5--5--7-7-7--7--7------------------|

(0:39)
E|---------------------------------------------------------------------|
B|---------------------------------------------------------------------|
G|-9-9-9--9--9--9-9-9--9--9--8-8-8--8--8--8-8-8--8--8------------------|
D|-9-9-9--9--9--9-9-9--9--9--9-9-9--9--9--9-9-9--9--9------------------|
A|-7-7-7--7--7--7-7-7--7--7--6-6-6--6--6--6-6-6--6--6------------------|
E|---------------------------------------------------------------------|

(0:45)
E|---------------------------------------------------------------------|
B|---------------------------------------------------------------------|
G|-7-7-7--7--7--7-7-7--7--7--------------------------------------------|
D|-7-7-7--7--7--7-7-7--7--7--7-7-7--7--7--9----------------------------|
A|-5-5-5--5--5--5-5-5--5--5--7-7-7--7--7--9----------------------------|
E|---------------------------5-5-5--5--5--7----------------------------|

(0:52)
E|---------------------------------------------------------------------|
B|---------------------------------------------------------------------|
G|-9--9----9-----------------------------------------------------------|
D|-9--99--99--9--------------------------------------------------------|
A|-7--79--97--9--9999--------------------------------------------------|
E|-----7--7---7--7777--------------------------------------------------| x3
Palm mute the power chords without high octave notes here.

(0:56)
E|---------------------------------------------------------------------|
B|---------------------------------------------------------------------|
G|-9--9-------9--------------------------------------------------------|
D|-9--99--99--9--------------------------------------------------------|
A|-7--79--99--7--------------------------------------------------------|
E|-----7--77-----------------------------------------------------------|

Chorus:
(0:58)
E|---------------------------------------------------------------------|
B|---------------------------------------------------------------------|
G|---------------------------------------------------------------------|
D|-6--66--66-----------------------------------------------------------|
A|-6--66--66--6--6666--------------------------------------------------|
E|-4--44--44--4--4444--------------------------------------------------| x4
Palm mute the power chords without high octave notes here.

(1:04)
E|---------------------------------------------------------------------|
B|---------------------------------------------------------------------|
G|-9-9--------------------------9-9------------------------------------|
D|-9-9--9--9----9--9----9--9-9--9-9--9--9----9--9----9--9-8------------|
A|-7-7--9--9----9--9----9--9-9--7-7--9--9----9--9----9--9-8------------|
E|------7--7----7--7----7--7-7-------7--7----7--7----7--7-6------------|

(1:09)
E|---------------------------------------------------------------------|
B|---------------------------------------------------------------------|
G|---------------------------------------------------------------------|
D|-6--66--66-----------------------------------------------------------|
A|-6--66--66--6--6666--------------------------------------------------|
E|-4--44--44--4--4444--------------------------------------------------| x4
Palm mute the power chords without high octave notes here.

(1:15)
E|---------------------------------------------------------------------|
B|---------------------------------------------------------------------|
G|-9-9--------------------------9-9------------------------------------|
D|-9-9--9--9----9--9----9--9-9--9-9--9--9----9--9----9--9-8------------|
A|-7-7--9--9----9--9----9--9-9--7-7--9--9----9--9----9--9-8------------|
E|------7--7----7--7----7--7-7-------7--7----7--7----7--7-6------------|

(1:21)
E|---------------------------3-3-3--3-3-3------------------------------|
B|-5-5--5-5-5--5-5-5--5-5-5--3-3-3--3-3-3------------------------------|
G|-6-6--6-6-6--6-6-6--6-6-6--0-0-0--0-0-0------------------------------|
D|-6-6--6-6-6--6-6-6--6-6-6--0-0-0--0-0-0--4-4-4--4-4-4----------------|
A|-4-4--4-4-4--4-4-4--4-4-4--2-2-2--2-2-2--5-5-5--5-5-5----------------|
E|---------------------------3-3-3--3-3-3--2-2-2--2-2-2----------------|

Bridge:
(1:26)
E|-------0-----------0-----------0-----------5-------------------------|
B|----------0-----------0-----------0-----------5----------------------|
G|-1--1--------2--2----------------------------------------------------|
D|-2--2--------0--0--------6--6--------7--7----------------------------|
A|-2--2--------0--0--------6--6--------7--7----------------------------|
E|-0--0--------2--2--------4--4--------5--5----------------------------| x3

(1:42)
E|-------0-----------0-----------0-------------------------------------|
B|----------0-----------0-----------0----------------------------------|
G|-1--1--------2--2----------------------------------------------------|
D|-2--2--------0--0--------6--6--------7----7--6--4--2-----------------|
A|-2--2--------0--0--------6--6--------7----7--6--4--2-----------------|
E|-0--0--------2--2--------4--4--------5----5--4--2--0-----------------|

Outro:
(1:50)
E|---------------------------------------------------------------------|
B|---------------------------------------------------------------------|
G|-9----8------------------------------------8-------------------------|
D|-9----9----7----7-7--------7----7-7--------9-------------------------|
A|-7----6----7----7-7--------7----7-7--------6-------------------------|
E|-0---------5----5-5--------5----5-5----------------------------------|

(2:01)
E|---------------------------------------------------------------------|
B|---------------------------------------------------------------------|
G|-9----8--------------------------------------------------------------|
D|-9----9----7----7-7--------7----7-7----9--2--------------------------|
A|-7----6----7----7-7--------7----7-7----9--2--------------------------|
E|-0---------5----5-5--------5----5-5----7--0--------------------------|

(2:22). End.

Track 13: The State Lottery

Intro:
(0:23)
E|---------------------------------------------------------------------|
B|---------------------------------------------------------------------|
G|-(7)-7-7--7-7-7--7-7-7--7--6-----------------------------------------|
D|-(7)-7-7--7-7-7--7-7-7--7--6-----------------------------------------|
A|-(5)-5-5--5-5-5--5-5-5--5--4-----------------------------------------|
E|---------------------------------------------------------------------| x3
Don't play the chord in parenthesis the first time.

(0:30)
E|---------------------------------------------------------------------|
B|---------------------------------------------------------------------|
G|-5-5-5--5-5-5--6-6-6--6-6-6------------------------------------------|
D|-5-5-5--5-5-5--6-6-6--6-6-6------------------------------------------|
A|-3-3-3--3-3-3--4-4-4--4-4-4------------------------------------------|
E|---------------------------------------------------------------------|

(0:32)
E|---------------------------------------------------------------------|
B|---------------------------------------------------------------------|
G|-7-7-7--7-7-7--7-7-7--7--6-------------------------------------------|
D|-7-7-7--7-7-7--7-7-7--7--6-------------------------------------------|
A|-5-5-5--5-5-5--5-5-5--5--4-------------------------------------------|
E|---------------------------------------------------------------------| x3

(0:38)
E|---------------------------------------------------------------------|
B|---------------------------------------------------------------------|
G|-5-5-5--5-5-5--6-6-6--6-6-6------------------------------------------|
D|-5-5-5--5-5-5--6-6-6--6-6-6------------------------------------------|
A|-3-3-3--3-3-3--4-4-4--4-4-4------------------------------------------|
E|---------------------------------------------------------------------|

Verse:
(0:41)
E|---------------------------------------------------------------------|
B|-6-6--6-6-6--5-5-5--5-5-5--6-6-6--6-6-6--5-5-5--5-5-5----------------|
G|-7-7--7-7-7--7-7-7--7-7-7--7-7-7--7-7-7--7-7-7--7-7-7----------------|
D|-7-7--7-7-7--7-7-7--7-7-7--7-7-7--7-7-7--7-7-7--7-7-7----------------|
A|-5-5--5-5-5--5-5-5--5-5-5--5-5-5--5-5-5--5-5-5--5-5-5----------------|
E|---------------------------------------------------------------------|

(0:46)
E|---------------------------------------------------------------------|
B|-6-6-6--6-6-6--5-5-5--5-5-5------------------------------------------|
G|-5-5-5--5-5-5--5-5-5--5-5-5--3-3-3--3-3-3--3-3-3--3-3-5--------------|
D|-5-5-5--5-5-5--5-5-5--5-5-5--3-3-3--3-3-3--3-3-3--3-3-5--------------|
A|-3-3-3--3-3-3--3-3-3--3-3-3--1-1-1--1-1-1--1-1-1--1-1-3--------------|
E|---------------------------------------------------------------------|

(0:50)
E|---------------------------------------------------------------------|
B|-6-6--6-6-6--5-5-5--5-5-5--6-6-6--6-6-6--5-5-5--5-5-5----------------|
G|-7-7--7-7-7--7-7-7--7-7-7--7-7-7--7-7-7--7-7-7--7-7-7----------------|
D|-7-7--7-7-7--7-7-7--7-7-7--7-7-7--7-7-7--7-7-7--7-7-7----------------|
A|-5-5--5-5-5--5-5-5--5-5-5--5-5-5--5-5-5--5-5-5--5-5-5----------------|
E|---------------------------------------------------------------------|

(0:55)
E|---------------------------------------------------------------------|
B|-6-6-6--6-6-6--5-5-5--5-5-5------------------------------------------|
G|-5-5-5--5-5-5--5-5-5--5-5-5--3-3-3--3-3-3--3-3-3--3-3-3--------------|
D|-5-5-5--5-5-5--5-5-5--5-5-5--3-3-3--3-3-3--3-3-3--3-3-3--------------|
A|-3-3-3--3-3-3--3-3-3--3-3-3--1-1-1--1-1-1--1-1-1--1-1-1--------------|
E|---------------------------------------------------------------------|

Chorus:
(0:59)
E|---------------------------------------------------------------------|
B|---------------------------------------------------------------------|
G|---------------------------------------------------------------------|
D|-3-3-3---------------------------------------------------------------|
A|-3-3-3---------------------------------------------------------------|
E|-1-1-1---------------------------------------------------------------| x16

(1:08)
E|---------------------------------------------------------------------|
B|-3-3-3--3-3-3--3-3-3--3-3-3------------------------------------------|
G|-0-0-0--0-0-0--0-0-0--0-0-0--3-3-3--3-3-3--3-3-3--3-3-3--------------|
D|-0-0-0--0-0-0--0-0-0--0-0-0--3-3-3--3-3-3--3-3-3--3-3-3--------------|
A|-2-2-2--2-2-2--2-2-2--2-2-2--1-1-1--1-1-1--1-1-1--1-1-1--------------|
E|-3-3-3--3-3-3--3-3-3--3-3-3------------------------------------------|

(1:12)
E|---------------------------------------------------------------------|
B|---------------------------------------------------------------------|
G|-----------------------------5-5-5--5-5-5--6-6-6--6-6-6--------------|
D|-3-3-3--3-3-3--3-3-3--3-3-3--5-5-5--5-5-5--7-7-7--7-7-7--------------|
A|-3-3-3--3-3-3--3-3-3--3-3-3--3-3-3--3-3-3--4-4-4--4-4-4--------------|
E|-1-1-1--1-1-1--1-1-1--1-1-1------------------------------------------|

(1:16)
E|---------------------------------------------------------------------|
B|---------------------------------------------------------------------|
G|-7--------0-----------------5----6-----------------------------------|
D|-7--------0--------8--------7----7-----------------------------------|
A|-5--------2--------8--------7----4-----------------------------------|
E|----------3--------6--------5----------------------------------------| x2

Bridge:
(1:34)
E|---------------------------------------------------------------------|
B|---------------------------------------------------------------------|
G|-7-7--7--7--------------10-10-10--10-10-10---------------------------|
D|-7-7--7--x--8-8--8-8-8--10-10-10--10-10-10--7-7-7--7-7-7-------------|
A|-5-5--5--5--8-8--8-8-8--8--8--8---8--8--8---7-7-7--7-7-7-------------|
E|------------6-6--6-6-6----------------------5-5-5--5-5-5-------------| x4

Outro:
(1:52)
E|---------------------------------------------------------------------|
B|---------------------------------------------------------------------|
G|-3--3--3-3-3-3--5--5--5-5-5-5--7--7--7-7-7-7--7--7--7-7-7-7----------|
D|-3--3--3-3-3-3--5--5--5-5-5-5--7--7--7-7-7-7--7--7--7-7-7-7----------|
A|-1--1--1-1-1-1--3--3--3-3-3-3--5--5--5-5-5-5--5--5--5-5-5-5----------|
E|---------------------------------------------------------------------| x3


(2:08)
E|---------------------------------------------------------------------|
B|---------------------------------------------------------------------|
G|-3--3--3-3-3-3--5--5--5-5-5-5--7----5----7---------------------------|
D|-3--3--3-3-3-3--5--5--5-5-5-5--7----5----7---------------------------|
A|-1--1--1-1-1-1--3--3--3-3-3-3--5----3----5---------------------------|
E|---------------------------------------------------------------------| x3

(2:14). End.

Track 14: Refusing to be a Man

Intro::
E|---------------------------------------------------------------------|
B|---------------------------------------------------------------------|
G|-7-------------------------------------------------------------------|
D|-7--7-7-7-7-7-4--------------5------------7--------------------------|
A|-5--5-5-5-5-5-5--5-5-5-5-5-555--5-5-5-5-5-7--7-7-7-7-7-77------------|
E|--------------2--2-2-2-2-2-223--3-3-3-3-3-5--5-5-5-5-5-55------------|
Palm mute the chords without high octave notes here.

(0:06)
E|---------------------------------------------------------------------|
B|---------------------------------------------------------------------|
G|-7-------------------------------------------------------------------|
D|-7--7-7-7-7-7-4--------------5------------9--7--5--7-5-7-------------|
A|-5--5-5-5-5-5-5--5-5-5-5-5-555--5-5-5-5-5-9--7--5--7-5-7-------------|
E|--------------2--2-2-2-2-2-223--3-3-3-3-3-7--5--3--5-3-5-------------|
Palm mute the chords without high octave notes here.

(0:13)
E|---------------------------------------------------------------------|
B|---------------------------------------------------------------------|
G|-7-------------------------------------------------------7--7--------|
D|-7--7-7-7-7-7-4--------------5------------------------7--7--7--------|
A|-5--5-5-5-5-5-5--5-5-5-5-5-555--5-5-5-5-5-5-5-5-5-5-5-7--5--5--------|
E|--------------2--2-2-2-2-2-223--3-3-3-3-3-3-3-3-3-3-3-5--------------|
Palm mute the chords without high octave notes here.

(0:20)
E|---------------------------------------------------------------------|
B|---------------------------------------------------------------------|
G|-7-------------------------------------------------------------------|
D|-7--7-7-7-7-7-4--------------5------------9--7--5--7-5---------------|
A|-5--5-5-5-5-5-5--5-5-5-5-5-555--5-5-5-5-5-9--7--5--7-5---------------|
E|--------------2--2-2-2-2-2-223--3-3-3-3-3-7--5--3--5-3---------------|
Palm mute the chords without high octave notes here.

Chorus:
(0:27)
E|--------------------------------------7----------5-----5-------------|
B|--------------------------------------7------------5-----5-----------|
G|-7-7-7-7------------------------------8--------------7-----7---------|
D|-7-7-7-7--7-7-7--8-8-8--8-8-8-8-------------5------------------------|
A|-5-5-5-5--7-7-7--7-7-7--7-7-7-7-9-9-9---9-9-5------------------------|
E|----------5-5-5--6-6-6--6-6-6-6-7-7-7---7-7-3------------------------|
Palm mute the power chords without high octave notes here.

(0:34)
E|--------------------------------------7-------------------10---------|
B|--------------------------------------7----------10----------10------|
G|-7-7-7-7------------------------------8-------------9-p7--------7----|
D|-7-7-7-7--7-7-7--8-8-8--8-8-8-8-------------5------------------------|
A|-5-5-5-5--7-7-7--7-7-7--7-7-7-7-9-9-9---9-9-5------------------------|
E|----------5-5-5--6-6-6--6-6-6-6-7-7-7---7-7-3------------------------|
Palm mute the power chords without high octave notes here.

(0:40)
E|--------------------------------------7----------5-----5-------------|
B|--------------------------------------7------------5-----5-----------|
G|-7-7-7-7------------------------------8--------------7-----7---------|
D|-7-7-7-7--7-7-7--8-8-8--8-8-8-8-------------5------------------------|
A|-5-5-5-5--7-7-7--7-7-7--7-7-7-7-9-9-9---9-9-5------------------------|
E|----------5-5-5--6-6-6--6-6-6-6-7-7-7---7-7-3------------------------|
Palm mute the power chords without high octave notes here.

(0:47)
E|--------------------------------------7------------------------------|
B|--------------------------------------7------------------------------|
G|-7-7-7-7------------------------------8------------------------------|
D|-7-7-7-7--7-7-7--8-8-8--8-8-8-8-------------5--------7---------------|
A|-5-5-5-5--7-7-7--7-7-7--7-7-7-7-9-9-9---9-9-5--------7---------------|
E|----------5-5-5--6-6-6--6-6-6-6-7-7-7---7-7-3--------5---------------|
Palm mute the power chords without high octave notes here.

Verse:
(0:57)
E|---------------------------------------------------------------------|
B|---------------------------------------------------------------------|
G|-4----6--6-6---------------------------------------------------------|
D|-4--4-7--7-7-4--4-4-5--5-5-5-----------------------------------------|
A|-2--2-4--4-4-5--5-5-5--5-5-5-----------------------------------------|
E|-------------2--2-2-3--3-3-3-----------------------------------------| x2
Palm mute the power chords without high octave notes here.

(1:05)
E|---------------------------------------------------------------------|
B|-5--5-5--5--5--5--5-5-5-5--------------------------------------------|
G|-6--6-7--6--7--6--7-7-7-6--------------------------------------------|
D|-7--7-7--7--7--7--7-7-7-7--------------------------------------------|
A|---------------------------------------------------------------------|
E|---------------------------------------------------------------------|

(1:08)
E|---------------------------------------------------------------------|
B|---------------------------------------------------------------------|
G|-4----6--------------------------6-6--------6------------------------|
D|-4--4-7--7-4-4--------4-4--------7-7--------7------------------------|
A|-2--2-4--4-5-5--------5-5--------4-4--------4------------------------|
E|-----------2-2--------2-2--------------------------------------------|
Palm mute the chords without high octave notes here.

Chorus 2:
(1:15)
E|--------------------------------------7----------5-----5-------------|
B|--------------------------------------7------------5-----5-----------|
G|-7-7-7-7------------------------------8--------------7-----7---------|
D|-7-7-7-7--7-7-7--8-8-8--8-8-8-8-------------5------------------------|
A|-5-5-5-5--7-7-7--7-7-7--7-7-7-7-9-9-9---9-9-5------------------------|
E|----------5-5-5--6-6-6--6-6-6-6-7-7-7---7-7-3------------------------|
Palm mute the power chords without high octave notes here.

(1:22)
E|--------------------------------------7-------------------10---------|
B|--------------------------------------7----------10----------10------|
G|-7-7-7-7------------------------------8-------------9-p7--------7----|
D|-7-7-7-7--7-7-7--8-8-8--8-8-8-8-------------5------------------------|
A|-5-5-5-5--7-7-7--7-7-7--7-7-7-7-9-9-9---9-9-5------------------------|
E|----------5-5-5--6-6-6--6-6-6-6-7-7-7---7-7-3------------------------|
Palm mute the power chords without high octave notes here.

(1:29)
E|--------------------------------------7----------5-----5-------------|
B|--------------------------------------7------------5-----5-----------|
G|-7-7-7-7------------------------------8--------------7-----7---------|
D|-7-7-7-7--7-7-7--8-8-8--8-8-8-8-------------5------------------------|
A|-5-5-5-5--7-7-7--7-7-7--7-7-7-7-9-9-9---9-9-5------------------------|
E|----------5-5-5--6-6-6--6-6-6-6-7-7-7---7-7-3------------------------|
Palm mute the power chords without high octave notes here.

(1:35)
E|--------------------------------------7------------------------------|
B|--------------------------------------7------------------------------|
G|-7-7-7-7------------------------------8------------------------------|
D|-7-7-7-7--7-7-7--8-8-8--8-8-8-8-------------7------------------------|
A|-5-5-5-5--7-7-7--7-7-7--7-7-7-7-9-9-9---9-9-7------------------------|
E|----------5-5-5--6-6-6--6-6-6-6-7-7-7---7-7-5------------------------|
Palm mute the power chords without high octave notes here.

(1:42)
E|---------------------------------------------------------------------|
B|---------------------------------------------------------------------|
G|---------------------------------------------------------------------|
D|-4----------------------------7------------8-------------------------|
A|-5--5-5-5-5-5-5-5-5-5-5-5-5-5-7--7-7-7-7-7-7--7-7-7-7-7--------------|
E|-2--2-2-2-2-2-2-2-2-2-2-2-2-2-5--5-5-5-5-5-6--6-6-6-6-6--------------|
Palm mute the chords without high octave notes here.

(1:49)
E|---------------------------------------------------------------------|
B|---------------------------------------------------------------------|
G|---------------------------------------------------------------------|
D|-9------------7------------------------------------------------------|
A|-9--9-9-9-9-9-7--7-7-7-7-7-------------------------------------------|
E|-7--7-7-7-7-7-5--5-5-5-5-5-------------------------------------------|
Palm mute the power chords without high octave notes here.

(1:53)
E|---------------------------------------------------------------------|
B|---------------------------------------------------------------------|
G|---------------------------------------------------------------------|
D|-4----------------------------7------------8-------------------------|
A|-5--5-5-5-5-5-5-5-5-5-5-5-5-5-7--7-7-7-7-7-7--7-7-7-7-7--------------|
E|-2--2-2-2-2-2-2-2-2-2-2-2-2-2-5--5-5-5-5-5-6--6-6-6-6-6--------------|
Palm mute the chords without high octave notes here.

(1:59)
E|---------------------------------------------------------------------|
B|---------------------------------------------------------------------|
G|---------------------------------------------------------------------|
D|-9------------7------------5-----------------------------------------|
A|-9--9-9-9-9-9-7--7-7-7-7-7-5--5-5-5-5-5-5-5-5-5-5-5-5-5-5------------|
E|-7--7-7-7-7-7-5--5-5-5-5-5-3--3-3-3-3-3-3-3-3-3-3-3-3-3-3------------|
Palm mute the power chords without high octave notes here.

(2:06)
E|---------------------------------------------------------------------|
B|---------------------------------------------------------------------|
G|-7-7-7-7-7-7-7-7-7-7-7-7-7-7-7-7-------------------------------------|
D|-x-x-x-x-x-x-x-x-x-x-x-x-x-x-x-x-------------------------------------|
A|-5-5-5-5-5-5-5-5-5-5-5-5-5-5-5-5-------------------------------------|
E|---------------------------------------------------------------------|

Outro:
(2:10)
E|-----------------5-----5---------------------------------------------|
B|-------------------5-----5-------------------------------------------|
G|-2-2-2--9-7-6-7------7-----7--2-2-2--6-4-6-12---12-12----------------|
D|-4-4-4--x-x-x-x---------------4-4-4--x-x-x-x----x--x--x-x--7-7-7-----|
A|-5-5-5--7-5-4-5---------------5-5-5--4-2-4-10---10-10-1010-7-7-7-----|
E|-----------------------------------------------------------5-5-5-----|
Palm mute:                                              ^--^

(2:17)
E|-------------------------10------------------------------------------|
B|-----------------10---------10---------------------------------------|
G|-2-2-2--9-7-6-7-----9-p7-------7-------------------------------------|
D|-4-4-4--x-x-x-x------------------------------------------------------|
A|-5-5-5--7-5-4-5------------------------------------------------------|
E|---------------------------------------------------------------------|

(2:10)
E|---------------------------------------------------------------------|
B|---------------------------------------------------------------------|
G|-2-2-2--6-4-6-12---12-12--121212-121212------------------------------|
D|-4-4-4--x-x-x-x----x--x---x-x-x--x-x-x-------------------------------|
A|-5-5-5--4-2-4-10---10-10--101010-101010------------------------------|
E|---------------------------------------------------------------------|

(2:24)
E|---------------------------------------------------------------------|
B|---------------------------------------------------------------------|
G|-141414-141414-141414-141414-----------------------------------------|
D|-x-x-x--x-x-x--x-x-x--x-x-x------------------------------------------|
A|-121212-121212-121212-121212-----------------------------------------|
E|---------------------------------------------------------------------|

(2:25)
E|---------------------------------------------------------------------|
B|---------------------------------------------------------------------|
G|-7--7-7--7-7-7-7-7-7-7-----------------------------------------------|
D|-7--7-7--7-7-7-7-7-7-7-----------------------------------------------|
A|-5--5-5--5-5-5-5-5-5-5-----------------------------------------------|
E|---------------------------------------------------------------------| x4

(2:32)
E|---------------------------------------------------------------------|
B|---------------------------------------------------------------------|
G|-------------------------7-------------------------------------------|
D|-2-----------------------7-------------------------------------------|
A|---5-4-5-4-2-4-2---------5-------------------------------------------|
E|-----------------5-3-2-0---------------------------------------------|

(2:40). End.

Please send any suggestions, questions, and or comments to: BlakeFX@gmail.com

Thank you.

            
            
Suggest correction
Creating personal tab
Creating personal tab
You can edit any tab online and save it as your Personal.

You can edit, replace or remove any tab part or add personal notes – all changes will be seen only by you.

Personal tabs can be accessed anytime from any device, even offline.
Learn more »
comments
print report bad tab
3 comments total.
0 reply
ohp-kyle 562 Mar 05, 2008 04:31 PM

Seeing this made me hunt through my box of CDs (I moved recently) and pick up my guitar.

I do have one correction, though. In "I Was a Pre-Teen McCarthyist," during the verse (0:23 and 0:33) and bridge (1:41), I'm relatively certain Chris plays a G# variation:

(Bridge)
e|------------------------------|
b|------------------------------|
G|------------------------------|
D|-6-6-6-6--7--9----------------|
A|-7-7-7-7--7--9--9-9-9-9-9-9-9-|
E|-4-4-4-4--5--7--7-7-7-7-7-7-7-|

Awesome job. It made my day. Thank you.

0 reply
Johnny The Cat 157 Oct 19, 2008 06:02 PM

Just looking at this, so far the verse chords of "The State Lottery" are incorrect. During "does it seem strange to you?", Chris is actually going from a Dmin to a Dsus2, and then an F Major to an F Maj 7th, before going to the B flat major and Cmin.

And a lot of the chords for Resisting Tyrannical Government are incorrect too.

ohp-kyle is correct in his post above. Still a pretty decent job though all the same.

0 reply
Rhinorocka14 72 Apr 01, 2012 09:04 AM

You're the man! I'm working on Supporting Caste (album) and if you have anything done for that so far, maybe we can collaborate? PM me and we'll figure something out!

guest
You may want to rate the tab now too:
select rating
Wanna post a correction for this tab? Suggest correction