Oops, an error
Loading. Please wait.

Showdown bass

version 1
version 1

Whole song

Interactive

1,191 views 1 this week
1 commentread comment
1 2 3 4 5
x 3
add to favorites
×
Save as Personal and add changes to this tab that will be seen only by you. Learn more ›
×
You can save this tab as Personal to edit and correct it or add notes. All changes will be seen only by you. Learn more »
launch autoscroll
font size
0
reset
guitar tuner
edit
Autoscroll
slow
fast
+/-
esc
set tempo
stop
------------------------------------------------------------------------
                       SHOWDOWN      PROPAGANDHI
------------------------------------------------------------------------

> MEANS STRUM

INTRO
G]-----------------------]
D]-----------------------]
A]-----------------5>-3>-]x4
E]-3-3-3-0-0-0-3-0-------]

CHORUS
G]-------------------------------------]
D]------------------------------3-5----]
A]-----------5>-3>-----------5>-----3>-]x7
E]-3>-0>-3-0-------3>-0>-3-0-----------]

VERSE
G]-------------------------------]
D]-------------------------------]
A]-------3>-5>-------------3>-5>-]
E]-0>-3>-------5-5-3-0>-3>-------]

PRE-CHORUS
G]----------]
D]----------]
A]-10>-5>-3-]x4
E]----------]

CHORUS x6
VERSE
PRE-CHORUS
CHORUS x5
END
G]------------]
D]------------]
A]-10>-5>-3---]
E]----------3-]

TABBED BY FUNKEL



            
            
Suggest correction
Creating personal tab
Creating personal tab
You can edit any tab online and save it as your Personal.

You can edit, replace or remove any tab part or add personal notes – all changes will be seen only by you.

Personal tabs can be accessed anytime from any device, even offline.
Learn more »
Give kudos to tab author, rate the tab!
1 2 3 4 5
comments
print report bad tab
1 comment total.
+1 reply
telenofunken 101 Aug 16, 2013 09:59 AM

I THINK IS LIKE THAT THE VERSE
G]-------------0-----0--------]
D]-----------4-----2----------]
A]---------5-----3------------]
E]-3>-0>----------------------]

guest
Wanna post a correction for this tab? Suggest correction