Oops, an error
Loading. Please wait.
We have an official Ska Sucks tab made by UG professional guitarists. Check out the tab »
×
5,497 views 12 this week
1 commentread comment
1 2 3 4 5
x 5
add to favorites
×
Save as Personal and add changes to this tab that will be seen only by you. Learn more ›
×
You can save this tab as Personal to edit and correct it or add notes. All changes will be seen only by you. Learn more »
launch autoscroll
font size
0
reset
how to read this tab
guitar tuner
edit
Autoscroll
slow
fast
+/-
esc
set tempo
stop
---------------------------------------------------
                     SKA SUCKS - Propagandhi
----------------------------------------------------

BASS LINE
G-----------------------------------|
D-------4-----4h5p4-----------------|
A-5-5-5---5-5--------------2--------|
E--------------------3-3-3---3-/5-5-|

SKA CHORDS
e-5-5-5-5-3-3----5-5-------------------|
B-7-7-7-7-3-3----5-5-------------------|
G-7-7-7-7-4-4----6-6-------------------|
D-7-7-7-7-5-5----7-7-------------------|
A-5-5-5-5-5-5----7-7-------------------|
E---------3-3-//-5-5-------------------|

INTERLUDE
e--------------------------------------------------|
B--------------------------------------------------|
G--------------------------------------------------|
D--5-4~--7-5-4~--/7--7-7-9-11-9-7--7-7-9-11-9-7----|
A--------------------------------------------------|
E--------------------------------------------------|

e--------------------------------------------------|
B------------------5---3---7-----------------------|
G--------------------------------------------------|
D-4-7-5-4-5-4--------------------------------------|
A-------------5------------------------------------|
E--------------------------------------------------|

  .double.pick...............
e-10-10--9-9--7-7--5-7-5-3-----------------|
B------------------------------------------|
G------------------------------------------|
D-----------------------------pickslide----|
A------------------------------------------|
E------------------------------------------|

Then its just D G A power chords


==================================================

            
            
Suggest correction
Creating personal tab
Creating personal tab
You can edit any tab online and save it as your Personal.

You can edit, replace or remove any tab part or add personal notes – all changes will be seen only by you.

Personal tabs can be accessed anytime from any device, even offline.
Learn more »
comments
print report bad tab
1 comment total.
0 reply
jiligier 182 Jul 02, 2013 03:12 PM

and it ends with

e-5--5--5--0--2-----10---------------------|
B----------------3--10---------------------|
G------------------------------------------|
D------------------------------------------|
A------------------------------------------|
E------------------------------------------|

guest
Wanna post a correction for this tab? Suggest correction