Oops, an error
Loading. Please wait.
We have an official Ska Sucks tab made by UG professional guitarists. Check out the tab »
×
3,637 views 3 this week
1 commentread comment
1 2 3 4 5
x 9
add to favorites
×
Save as Personal and add changes to this tab that will be seen only by you. Learn more ›
×
You can save this tab as Personal to edit and correct it or add notes. All changes will be seen only by you. Learn more »
launch autoscroll
font size
0
reset
guitar tuner
edit
Autoscroll
slow
fast
+/-
esc
set tempo
stop
-------------------------------------------------------------------------------
			     SKA SUCKS - Propagandhi
-------------------------------------------------------------------------------

By: William Learned (mulletxcore@hotmail.com)

INTRO:                X3
G|----------------------|----------------------------------------------------|
D|-----4--4p5h----------|----4--4p5h-----------------------------------------|
A|--555-55-------2--0040|-555-55-------2--0>---------------------------------|
E|-------------33-3-----|------------33-3------------------------------------|

VERSE (WHERE VOCALS COME IN):
G|---------------------------------------------------------------------------|
D|-0457-0457------------0457-0457--------------------------------------------|
A|----------------0457-----------------0>------------------------------------|
E|-----------3202-----------------3202---------------------------------------|

G|---------------------------------------------------------------------------|
D|-0457-0457-----------0457-0457-----------0457-0457-------------------------|
A|----------------0457----------------0457----------------0457---------------|
E|-----------3202----------------3202----------------3202--------------------|

G|---------------------------------------------------------------------------|
D|-0457-0457-----------0457-0457-----------0457-0457-------------------------|
A|----------------0457----------------0457----------------0457---------------|
E|-----------3202----------------3202----------------3202--------------------|

G|---------------------------------------------------------------------------|
D|-0457-0457-----------0457-0457-----------0457-0457-------------------------|
A|----------------0457----------------0457----------------0457---------------|
E|-----------3202----------------3202----------------3202--------------------|

INTERLUDE (RUDY):
G|---------------------------------------------------------------------------|
D|---------------------------4-7--4-7--4-7-0457-0457-------------------------|
A|--5-------5-------5-------5----5----5-------------------0457---------------|
E|---------------------------------------------------3202--------------------|
VERSE FAST:				    X4 END MEDLEY:
G|----------------------------------|--------8-------------------------------|
D|----------------------------------|-888450---------------------------------|
A|--5>---------5>---------5>--------|----------------------------------------|
E|------333545-----333545-----333545|----------------------------------------|

===============================================================================
Email me to tell me how bad it is or where I messed up. This is my first attempt at 
tabbing a song.

            
            
Suggest correction
Creating personal tab
Creating personal tab
You can edit any tab online and save it as your Personal.

You can edit, replace or remove any tab part or add personal notes – all changes will be seen only by you.

Personal tabs can be accessed anytime from any device, even offline.
Learn more »
comments
print report bad tab
1 comment total.
+2 reply
jiligier 182 Oct 19, 2012 09:33 PM

The last measure is actually played like this:
G|--------7-------------------------------|
D|-777340---------------------------------|

guest
Wanna post a correction for this tab? Suggest correction