Oops, an error
Loading. Please wait.

Living On The 110 bass

118 views 45 this week
2 commentsread comments
1 2 3 4 5
3 more votes to show rating
add to favorites
×
Save as Personal and add changes to this tab that will be seen only by you. Learn more ›
×
You can save this tab as Personal to edit and correct it or add notes. All changes will be seen only by you. Learn more »
launch autoscroll
font size
0
reset
guitar tuner
edit
Autoscroll
slow
fast
+/-
esc
set tempo
stop
[Intro]
  Each note on the beat, wait for last 3 beats in bar 2
G|---------|--------|---------|
D|---------|-2------|---------|
A|-----0-1-|--------|-3-4-5-6-|
E|-3-2-----|--------|---------|

  Two notes per beat, wait out last beat
G|---------------|
D|---------------|
A|-7-7-7-7-7-7---| x4
E|---------------|

  Two notes per beat (it's hard to tell here whether Commerford plays a note or a grace note)
G|---------------------|
D|---------------------|
A|---------------------| x2
E|-0-x-0-x-0-x-0-0-x-x-|

  Two notes per beat (it's hard to tell here whether Commerford plays a note or a grace note)
G|-----------------------|
D|-----------------------|
A|-----------------------| x2
E|-0-x-0-x-0-0-x-0-0-x-x-|

[Verse]
  (At 32/33s in, lyrics start "Living ...")
  Two notes per beat, last note half a beat, wait out other half beat
G|-----------------|
D|-----------------|
A|---5-7---5-7-----| x3
E|-0-----0-----0---|

  Two notes per beat for the first four notes, then three notes per beat for the last six notes
G|---------------------|
D|---------0---0-0---0-|
A|---5-7-----2-----2---|
E|-0-----0-------------|

  Two notes per beat, last note half a beat, wait out other half beat
G|-----------------|
D|-----------------|
A|---5-7---5-7-----| x3
E|-0-----0-----0---|

  Two notes per beat for the first four notes, then three notes per beat for the last six notes
G|---------------------|
D|---------0---0-0---0-|
A|---5-7-----2-----2---|
E|-0-----0-------------|

[Chorus]
  Two notes per beat until the last bar where there is three notes per beat for the last six notes
G|-----------------|-----------------|-----------------|---------------------|
D|---2---2---2---2-|---0---0---0---0-|-----------------|---------0---0-0---0-|
A|-----------------|-----------------|---4---4---4---4-|---3---3---2-----2---| x2
E|-0---0---0---0---|-0---0---0---0---|-0---0---0---0---|-0---0---------------|

[Verse] 
(same as before)
  Two notes per beat, last note half a beat, wait out other half beat
G|-----------------|
D|-----------------|
A|---5-7---5-7-----| x3
E|-0-----0-----0---|

  Two notes per beat for the first four notes, then three notes per beat for the last six notes
G|---------------------|
D|---------0---0-0---0-|
A|---5-7-----2-----2---|
E|-0-----0-------------|

  Two notes per beat, last note half a beat, wait out other half beat
G|-----------------|
D|-----------------|
A|---5-7---5-7-----| x3
E|-0-----0-----0---|

  Two notes per beat for the first four notes, then three notes per beat for the last six notes
G|---------------------|
D|---------0---0-0---0-|
A|---5-7-----2-----2---|
E|-0-----0-------------|

[Chorus] 
(same as before)
  Two notes per beat until the last bar where there is three notes per beat for the last six notes
G|-----------------|-----------------|-----------------|---------------------|
D|---2---2---2---2-|---0---0---0---0-|-----------------|---------0---0-0---0-|
A|-----------------|-----------------|---4---4---4---4-|---3---3---2-----2---| x2
E|-0---0---0---0---|-0---0---0---0---|-0---0---0---0---|-0---0---------------|

[Bridge] 
(same as intro)
  Each note on the beat, wait for last 3 beats in bar 2
G|---------|--------|---------|
D|---------|-2------|---------|
A|-----0-1-|--------|-3-4-5-6-|
E|-3-2-----|--------|---------|

  Two notes per beat, wait out last beat
G|---------------|
D|---------------|
A|-7-7-7-7-7-7---| x4
E|---------------|

  Two notes per beat (it's hard to tell here whether Commerford plays a note or a grace note)
G|---------------------|
D|---------------------|
A|---------------------| x2
E|-0-x-0-x-0-x-0-0-x-x-|

  Two notes per beat (it's hard to tell here whether Commerford plays a note or a grace note)
G|-----------------------|
D|-----------------------|
A|-----------------------| x2
E|-0-x-0-x-0-0-x-0-0-x-x-|

[Verse] 
(During Morello's Guitar Solo)
  Two notes per beat, last note half a beat, wait out other half beat
G|-----------------|
D|-----------------|
A|---5-7---5-7-----| x3
E|-0-----0-----0---|

  Two notes per beat for the first four notes, then three notes per beat for the last six notes
G|---------------------|
D|---------0---0-0---0-|
A|---5-7-----2-----2---|
E|-0-----0-------------|

[Chorus] 
(After Morello's Guitar Solo)
  Two notes per beat until the last bar where there is three notes per beat for the last six notes
G|-----------------|-----------------|-----------------|---------------------|
D|---2---2---2---2-|---0---0---0---0-|-----------------|---------0---0-0---0-|
A|-----------------|-----------------|---4---4---4---4-|---3---3---2-----2---| x3
E|-0---0---0---0---|-0---0---0---0---|-0---0---0---0---|-0---0---------------|

[Outro]
  Each note on the beat, wait for last 3 beats in final bar
G|---------|--------|
D|---------|-2------|
A|-----0-1-|--------|
E|-3-2-----|--------|

            
            
Suggest correction
Creating personal tab
Creating personal tab
You can edit any tab online and save it as your Personal.

You can edit, replace or remove any tab part or add personal notes – all changes will be seen only by you.

Personal tabs can be accessed anytime from any device, even offline.
Learn more »
Give kudos to tab author, rate the tab!
1 2 3 4 5
comments
print report bad tab
2 comments total.
0 reply
Armotron 10 Aug 04, 2017 02:20 PM

Great job do you have the guitar tabs?

guest
You may want to rate the tab now too:
select rating
Wanna post a correction for this tab? Suggest correction