Oops, an error
Loading. Please wait.

Living On The 110 tab

version 1
version 1

Whole song

Interactive

1,183 views 147 this week
4 commentsread comments
1 2 3 4 5
1 last vote to show rating
add to favorites
×
Save as Personal and add changes to this tab that will be seen only by you. Learn more ›
×
You can save this tab as Personal to edit and correct it or add notes. All changes will be seen only by you. Learn more »
launch autoscroll
font size
0
reset
how to read this tab
guitar tuner
edit
Autoscroll
slow
fast
+/-
esc
set tempo
stop
[Intro 0:00 - 0:09]
e|-0-0-0-0-0---------------------------|
B|-0-0-0-0-0---------------------------|
G|-0-0-0-0-0---------------------------|
D|-0-2-2-4-9---------------------------| x2
A|-2-3-4-5-7---------------------------|
E|-------------------------------------|

[Pre Chorus Riff 00:9 - 0:20]
e|------------------------------------------|
B|------------------------------------------|
G|------------------------------------------|
D|------------------------------------------| x4
A|---5---7---5------5-----------------------|
E|-0---0---0---5--7-------------------------|


[Heavy Pre Chorus Riff 0:21- 0:33]
e|-------------------------------------------|
B|-------------------------------------------|
G|-------------------------------------------|
D|---7---9---7-------------------------------| x2
A|---5---7---5-------5-----------------------|
E|-0---0---0---5--7--------------------------|

[0:34- 0:57]
Chorus Riff - Second part at the end of the main riff

e|-----------------X-X-X----   ---------------------|
B|-----------------X-X-X----   ---------------------|
G|-----------------X-X-X----   ---------------------|
D|-----------------X-X-X--X4   ---------------------| x2
A|---5--7----5--7--X-X-X----   -5---5--5---5--------|
E|-0-------0-------X-X-X----   ---7------7----------|

A 2nd guitar might have been recorded with the bass, playing this riff : 

e|-------------------------------------------------------------------|
B|-------------------------------------------------------------------|
G|-------------------------------------------------------------------|
D|-------------------------------------------------------------------| x2
A|---7--7--7--7--5--5--5--5--5--4--4--4--4--3--3-----5------5--------|
E|-0--0--0--0--0--0--0--0--0--0--0--0--0--0--0-----7--7---7--7-------|

[0:58-1:22]
Verse Riff (Follow the rythm of the song, these are the chords)
e|-----------------------------------------------------------------------------|
B|-----------------------------------------------------------------------------|
G|-13-13-14-13-11-13-11-11-13-11-9-11-9-9-9-9-9--------------------------------|
D|-X--X--X--X--X--X--X--X--X--X--X--X--X--X------------------------------------| x2
A|-11-11-12-11-9--11-9--9--11-9--7-9--7-7-7-7-7--------5---5--5---5------------|
E|-0-----------------------------------------------------7------7--------------|

[Chorus 1:22 - 1:46]
Second part at the end of the main riff
e|-----------------X-X-X----   ---------------------|
B|-----------------X-X-X----   ---------------------|
G|-----------------X-X-X----   ---------------------|
D|-----------------X-X-X--X4   ---------------------| x2
A|---5--7----5--7--X-X-X----   -5---5--5---5--------|
E|-0-------0-------X-X-X----   ---7------7----------|

[Verse 1:46-2:10]
Follow the rythm of the song, these are the chords
e|-----------------------------------------------------------------------------|
B|-----------------------------------------------------------------------------|
G|-13-13-14-13-11-13-11-11-13-11-9-11-9-9-9-9-9--------------------------------|
D|-X--X--X--X--X--X--X--X--X--X--X--X--X--X------------------------------------| x2
A|-11-11-12-11-9--11-9--9--11-9--7-9--7-7-7-7-7--------5---5--5---5------------|
E|-0-----------------------------------------------------7------7--------------|

A 2nd guitar might have been recorded with the bass, playing this riff : 

e|-------------------------------------------------------------------|
B|-------------------------------------------------------------------|
G|-------------------------------------------------------------------|
D|-------------------------------------------------------------------| x2
A|---7--7--7--7--5--5--5--5--5--4--4--4--4--3--3-----5------5--------|
E|-0--0--0--0--0--0--0--0--0--0--0--0--0--0--0-----7--7---7--7-------|

[Bridge Same as intro 2:11 - 2:20]

e|-0-0-0-0-0---------------------------|
B|-0-0-0-0-0---------------------------|
G|-0-0-0-0-0---------------------------|
D|-0-2-2-4-9---------------------------| x2
A|-2-3-4-5-7---------------------------|
E|-------------------------------------|    "You better hope and pray!"

[2:21 - 2:32[
e|------------------------------------------|
B|------------------------------------------|
G|------------------------------------------|
D|------------------------------------------| x4
A|---5---7---5------5-----------------------|
E|-0---0---0---5--7-------------------------|

[2:32 - 2:44]
e|-------------------------------------------|
B|-------------------------------------------|
G|-------------------------------------------|
D|---7---9---7-------------------------------| x2
A|---5---7---5-------5-----------------------|
E|-0---0---0---5--7--------------------------|

[2:44 - 2:57]
Solo : sorry guys but Tom Morello does too many strange things ! 
I'll try to update this soon


[2:57 - 3:10]
Verse Riff (Follow the rythm of the song, these are the chords)
e|-----------------------------------------------------------------------------|
B|-----------------------------------------------------------------------------|
G|-13-13-14-13-11-13-11-11-13-11-9-11-9-9-9-9-9--------------------------------|
D|-X--X--X--X--X--X--X--X--X--X--X--X--X--X------------------------------------| x2
A|-11-11-12-11-9--11-9--9--11-9--7-9--7-7-7-7-7--------5---5--5---5------------|
E|-0-----------------------------------------------------7------7--------------|

2nd Guitar / bass (You can play powercords or hit hard on only E / A strings)
e|-------------------------------------------------------------------|
B|-------------------------------------------------------------------|
G|-------------------------------------------------------------------|
D|---9--9--9--9--7--7--7--7--7--6--6--6--6--5--5---------------------| x2
A|---7--7--7--7--5--5--5--5--5--4--4--4--4--3--3-----5------5--------|
E|-0--0--0--0--0--0--0--0--0--0--0--0--0--0--0-----7--7---7--7-------|

[Ending 3:33]
e|-0-0-0-0-0---------------------------|
B|-0-0-0-0-0---------------------------|
G|-0-0-0-0-0---------------------------|
D|-0-2-2-4-9---------------------------| 
A|-2-3-4-5-7---------------------------|
E|-------------------------------------| 

            
            
Suggest correction
Creating personal tab
Creating personal tab
You can edit any tab online and save it as your Personal.

You can edit, replace or remove any tab part or add personal notes – all changes will be seen only by you.

Personal tabs can be accessed anytime from any device, even offline.
Learn more »
Give kudos to tab author, rate the tab!
1 2 3 4 5
comments
print report bad tab
4 comments total. Showing first comments.
0 reply
Armotron 15 Aug 08, 2017 04:14 PM

If you had the solo I would have given you five stars but you are right there is a lot going on with this solo. It reminds me of an Incubus like solo along with Tom's solo in Fight Smash Win from Street Sweeper Social Club.

Other wise good job!

0 reply
totorsg 32 Aug 09, 2017 08:42 AM

Thank you Armotron , I'll try to update it as soon as I have some time :)

0 reply
andrerncoelho 10 Oct 06, 2017 06:18 AM

First of all very good tab! Congrats! There's a recent video of POR playing this song live and Morello plays a more simple version of the solo. But that's not so simple that I can figured out! 😁😁😁 If I discover something I'll sent a feedback.

Peace.

And cheers from Brazil.

guest
You may want to rate the tab now too:
select rating
Wanna post a correction for this tab? Suggest correction