Oops, an error
Loading. Please wait.

Prophets Of Rage bass

version 1
version 1

Whole song

Interactive

1,942 views 111 this week
no commentswrite comment
1 2 3 4 5
x 4
add to favorites
×
Save as Personal and add changes to this tab that will be seen only by you. Learn more ›
×
You can save this tab as Personal to edit and correct it or add notes. All changes will be seen only by you. Learn more »
launch autoscroll
font size
0
reset
guitar tuner
edit
Autoscroll
slow
fast
+/-
esc
set tempo
stop
Author
Prophets of Rage - Prophets of Rage (2016)
Tab by Bocuma747.


[Intro] (x12)

Start out quiet, then play loud and heavy after 8 repeats.

G|--------------------------------|
D|--3-1-3----3-1-3----3-1-3-------|
A|--------------------------------|
E|-----------------------------1--|


[Repeat 7 times, then rest for the length of one more repeat (until "Done by the Prophets of Rage")]

G|---------------------|
D|-------1-------1-----|
A|---------------------|
E|--1---------1-----1--|


[Chorus] (x2)

G|--3-4-5------------------------------3-4-5-----------------------------------------|
D|---------3-1--------------------------------3-1-------1----1----1----1-3-----------|
A|--------------3--3-2-1-----1----3----------------3-------3----3--------------------|
E|------------------------4----------------------------------------------------------|


[Repeat 7 times, then rest for the length of one more repeat (until "Clear the way for the Prophets of Rage")]

G|---------------------|
D|-------1-------1-----|
A|---------------------|
E|--1---------1-----1--|


[Chorus] (x2)

G|--3-4-5----------------------------3-4-5-----------------------------------------|
D|---------3-1------------------------------3-1-------1----1----1----1-3-----------|
A|--------------3--3-2-1-----1----3--------------3-------3----3--------------------|
E|------------------------4--------------------------------------------------------|


[Repeat until "Get down for the Prophets of Rage"]

G|---------------------|
D|-------1-------1-----|
A|---------------------|
E|--1---------1-----1--|


[Chorus] (x2)

G|--3-4-5----------------------------3-4-5-----------------------------------------|
D|---------3-1------------------------------3-1-------1----1----1----1-3-----------|
A|--------------3--3-2-1-----1----3--------------3-------3----3--------------------|
E|------------------------4--------------------------------------------------------|


[Outro] (x16) 

Start out quiet, then play loud and heavy after 8 repeats. Stop one note early on 
the last repeat.

G|--------------------------------|
D|--3-1-3----3-1-3----3-1-3-------|
A|--------------------------------|
E|-----------------------------1--|

            
            
Suggest correction
Creating personal tab
Creating personal tab
You can edit any tab online and save it as your Personal.

You can edit, replace or remove any tab part or add personal notes – all changes will be seen only by you.

Personal tabs can be accessed anytime from any device, even offline.
Learn more »
comments
print report bad tab
guest
You may want to rate the tab now too:
select rating
Wanna post a correction for this tab? Suggest correction